IndyTab Logo

BETA VERSION - 321 TABS DISPONIBILI

Cerca una tablatura nel nostro archivio:

Gruppo Canzone


Elenco dei gruppi presenti su IndyTab
Lista di tutte le tablature di IndyTab
DISCLAIMER
Questa tablatura rappresenta l'interpretazione della canzone da parte dell'autore. Può essere usata per scopi di studio, insegnamento e ricerca.

La tab è liberamente riproducibile in forum, blog, siti web (ad eccezione degli archivi di tablature online) e stampabile. Non è obbligatorio ma molto gradito citare la fonte (cioè IndyTab), meglio con un link di rimando al nostro sito.
ACCORDATORE
Per accordare la tua chitarra puoi usare il nostro accordatore online
TAB REQUEST
Stai cercando una tablatura? Suggeriscila compilando il modulo sottostante!

Gruppo
Titolo
Tua Mail

(la tua mail verrà usata per ricontattarti quando la tablatura sarà online)
DELLO STESSO GRUPPO

Après La Classe // Sale La Febbre

Tablatura tratta dall'album: Un Numero

(clicca qui per la legenda)

(clicca qui per il video)

      G#   C#
e|----4-----4-------|
B|----4-----6-------|
G|----5-----6-------|
D|---(6)---(6)------|
A|---(6)---(4)------|
E|---(4)------------|


--------------------------------------------------------------------------


INTRO:

e|----------4--------------------------|
B|------------4--------7-6-4\----------|
G|-------------------------------------|
D|----5h6-------6----------------------|
A|-------------------------------------|
E|-------------------------------------|

e|---------4----------------|
B|--------------------------|
G|--------------------------|  x8
D|----5h6-------------------|
A|--------------------------|
E|--------------------------|

e|--------------------------|
B|--------------------------|
G|--------------------------|  riperere più volte
D|----6~--------------------|
A|--------------------------|
E|--------------------------|


G# C# G# C#



STROFA 1:

   G#               C#     [C]
E' sabato sera e il campanello suona

   G#                         C#
E' come una musica mentre gli altri giorni stona

    G#                         C#
M'affaccio a guardare anche se so già di sapere

      G#                     C#
Chi è stato a pigiare quel bottone micidiale

       G#                     C#
Allora plano le scale e il sorriso mi compare

  G#             C#
Saturno maria in pena ad aspettare

     G#                          C#
Ma partiamo dal concetto lui non è uomo normale

      [G#]         [G#]            [G#] [G#]   [G#]
E' un lord all'apparenza e ha la follia per compare



RITORNELLO:
(ripetere il RIFF1 x4)

        G#     C#                              
Sale la febbreeee   

                G#    C#
dalle alpi a Leuca mo va

          G#  C#              G#        C#
Senti stu raggae dilaga in citta' qua e la


RIFF 1:

e|-------------4-------------------------|
B|---------------4-------7-6-4\----------|
G|---------------------------------------|
D|-------5h6-------6---------------------|
A|---------------------------------------|
E|---------------------------------------|


e|---------------------------------------|
B|-------------6-4-----------------------|
G|----------------------4~---------------|
D|-------5h6---------6-----6~------------|
A|---------------------------------------|
E|---------------------------------------|               



STACCO:
(il RIFF2 viene ripetuto quattro volte in sottofondo)

G# C# G# C#  x2


RIFF 2:

  (* nota ripetuta più volte)
e|----------------------------------|
B|----------------------------------|
G|-------------------5--------------|
D|-----5h6--6*----------6--3--6-----|
A|----------------------------------|
E|----------------------------------|



STROFA 2:

Specchi specchetti siamo lucidi e splendenti

Le luci della notte si riflettono sui denti

G#                  C#
Prima fermata ma se io tappa obbligata

  G#                   C#
Cucù porta fortuna per ogni serata

  G#                C#
E parte il brindisi sono gia dodici

G#                 C#
Siam quasi fradici fermiamo qua

G#                 C#
E i tassi alcolici segnano i massimi

   [G#]        [G#]         [G#]   [G#] [G#]
La tappa è consumata e la missione completata



RITORNELLO:

Sale la febbre dalle alpi a Leuca mo va

Senti stu raggae dilaga in citta' qua e la


(sempre con RIFF2 x 4)

        G#  C#                 G#    C#
Sale la febbre dalle alpi a Leuca mo va

          G#  C#              G#        C#
Senti stu raggae dilaga in citta' qua e la



STACCO:
(La chitarra qui non suona)

Bru.. bru.. brucia!



PONTE:

          [G#]     [G#]         [G#]  [G#]
Brucia nel----la se----ra la nostra chimera

              [G#]                [G#] [G#] 
Lasciando alle spalle il vuoto di ieri


tolgo la mente dai tanti pensieri

           [G#]           [G#]     [G#]   [G#] 
E il mio vi----so intinto dal sorri----so

                  [G#]            [G#]   [G#]
Il tempo mi tartas----sa e l'alcol mi complessa

         G#
E allora fiesta fiesta

    C#                   G#                   C#
Per me la cosa giusta senza mai dire basta la storia ca me gusta

         G#
E allora fiesta fiesta

    C#                   G#..                  
Per me la cosa giusta senza mai dire basta la storia ca me gusta



RITORNELLO:
(sempre con RIFF2 x 4)

        G#  C#                 G#    C#
Sale la febbre dalle alpi a Leuca mo va

          G#  C#              G#        C#
Senti stu raggae dilaga in citta' qua e la



OUTRO:
(il RIFF2 viene ripetuto quattro volte in sottofondo)

G# C# G# C# 
G# C# G# C# G#..
VIDEO

Se il video non dovesse essere più disponibile scrivi a indytab@googlemail.com. Grazie!
COMMENTA QUESTA TABLATURA
Devi avere JavaScript attivato per poter commentare! (misura antispam)