IndyTab Logo

BETA VERSION - 321 TABS DISPONIBILI

Cerca una tablatura nel nostro archivio:

Gruppo Canzone


Elenco dei gruppi presenti su IndyTab
Lista di tutte le tablature di IndyTab
DISCLAIMER
Questa tablatura rappresenta l'interpretazione della canzone da parte dell'autore. Può essere usata per scopi di studio, insegnamento e ricerca.

La tab è liberamente riproducibile in forum, blog, siti web (ad eccezione degli archivi di tablature online) e stampabile. Non è obbligatorio ma molto gradito citare la fonte (cioè IndyTab), meglio con un link di rimando al nostro sito.
ACCORDATORE
Per accordare la tua chitarra puoi usare il nostro accordatore online
TAB REQUEST
Stai cercando una tablatura? Suggeriscila compilando il modulo sottostante!

Gruppo
Titolo
Tua Mail

(la tua mail verrà usata per ricontattarti quando la tablatura sarà online)
DELLO STESSO GRUPPO

Après La Classe // Paris

Tablatura tratta dall'album: Après La Classe

(clicca qui per la legenda)

(clicca qui per il video)

     Am   G     F     Em   G#m    C
e|---5----10----8-----7-----4-----8----|
B|---5----12----10----8-----4-----8----|
G|---5----12----10----9-----4-----9----|
D|--(7)--(12)--(10)--(9)---(6)---(10)--|
A|--(7)--(10)--(8)---(7)---(6)---(10)--|
E|--(5)--------------------(4)---(8)---|


--------------------------------------------------------------------------
Grazie a CLARA per il testo!
--------------------------------------------------------------------------


INTRO: suona solo la tastiera.


RITORNELLO:

Am        G       F  Em    Am
Pa parappaparapapapa papaParis,

Am        G       F      (G#m)Am
Pa parappaparapapapa papapaParis,

Am        G       F  Em    Am
Pa parappaparapapapa papaParis,

Am        G       F      (G#m)Am
Pa parappaparapapapa papapaParis



STROFA 1: 

Am                Em 
Paris la nuit est ancore plus jolie

Em                        Am 
Ca c’est la nuit qu’ il y a à Paris

Am   
Le peuple, la foule

    Em
Qui bouge come des fourmies

Em                        Am
Ca c’est le monde qui vit a Paris

   F                    G
La musique se lève dans toute la ville

   Em                 Am
Le vin et la magie,de son parfum

   [F]          [G]        [C]  [F]
La foule qui se lève à chanteeeeer

[Em]
Vive le quatorze juillet



RITORNELLO:

Am        G       F  Em    Am
Pa parappaparapapapa papaParis,

Am        G       F  G#m     Am
Pa parappaparapapapa papapaParis,

Am        G       F  Em    Am
Pa parappaparapapapa papaParis,

Am        G       F      (G#m)Am
Pa parappaparapapapa papapaParis



STACCO:

Am  G#m  Am  G#m (G#m)



STROFA 2:

(G#m) Am                     Em
      Paris et les ruelles Paris et ses galeries

Em                         Am
L’odeur de la seine les histoires et sa magie

Am                      Em
Les tetes coupèes pour avoir la libertè

Em                            Am 
Et come ce grand jour rien ancore est changé

Am              Em
Paris, Paris, Paris, la paresseuse

Em                Am 
Paris de nuit est plus jolie

Am              Em 
Paris, Paris, Paris et ses amoureux

Em                        Am
Ca c’est le monde qui vit à Paris.

   F                    G
La musique se lève dans toute la ville

   Em                 Am
Le vin et la magie,de son parfum

   [F]          [G]        [C]  [F]
La foule qui se lève à chanteeeeer

[Em]
Vive le quatorze juillet



RITORNELLO: 

Am        G       F  Em    Am
Pa parappaparapapapa papaParis,

Am        G       F  G#m     Am
Pa parappaparapapapa papapaParis,

Am        G       F  Em    Am
Pa parappaparapapapa papaParis,

Am        G       F  G#m     Am
Pa parappaparapapapa papapaParis,



ASSOLO:

e|--------------------------------------------7-8--7-8-10---8-7-8-7-----|
B|---------------------------------------8-10------------------------10-|
G|---------7---8-7---------------7--9-10--------------------------------|
D|-7--9-10---------10----7--9-10----------------------------------------|
A|----------------------------------------------------------------------|
E|----------------------------------------------------------------------|
   Am      G   F Em      Am      G    F    Em   Am     G        F    Em

e|----------------------------------|
B|-10-9--10-9-8---------------------|
G|----------------9-8--9-8-7--------|
D|----------------------------------|
A|----------------------------------|
E|----------------------------------|
   Am       G     F      Em


(ripetere più volte le note)

e|--0--0-0--0---0----0--0--0-------0--0--0--0--0--0--0-0------|
B|--10-5-10-12--13---12-13-12------13-15-16-15-13-12-10-9-----|
G|------------------------------------------------------------|
D|------------------------------------------------------------|
A|------------------------------------------------------------|
E|------------------------------------------------------------|
    Am      G        F     Em      Am    G     F     Em

e|--0-0-0-0----0-0-----0---0-0-----0------0-------------------|
B|--3-2-3-4----3-1---------1-3-----5------10------------------|
G|---------------------2--------------------------------------|
D|------------------------------------------------------------|
A|------------------------------------------------------------|
E|------------------------------------------------------------|
    Am G  F    Em      Am  G              F   Em



RITORNELLO: 
(x2)

Pa parappaparapapapa papaParis,

Pa parappaparapapapa papapaParis,



PONTE:


On r'met ça!

[Am]                          [Em]
Pour tout le monde qui aime bouger, vivre, sauter

[Am]                              [Em]
et spécialement pour tous les gens qui aiment danser! Et alors,


(con pennate a colpi)

Am                               Em
Arrête pas d'bouger ta tête sans n'arrêter ton corps,

   Am                              Em
Le son de cette musique arrive par le plus profond de mon coeur,

    Am                                Em
et alors, bougez bougez les mains les pieds les mains et puis le corps,

  Am                                    Em
Essaie de sauter plus vite et d'en même temps essaie d'chanter, et alors!



RITORNELLO:

Am        G       F  Em    Am
Pa parappaparapapapa papaParis,

Am        G       F  G#m     Am
Pa parappaparapapapa papapaParis,

Am        G       F  Em    Am
Pa parappaparapapapa papaParis,

Am        G       F [Em](G#m)[Am]
Pa parappaparapapapa papapaParis



STACCO: suona solo il basso



RITORNELLO FINALE:

Am        G       F  Em    Am
Pa parappaparapapapa papaParis,

Am        G       F  G#m     Am
Pa parappaparapapapa papapaParis,

Am        G       F  Em    Am
Pa parappaparapapapa papaParis,

Am        G       F [Em](G#m)[Am]
Pa parappaparapapapa papapaParis.
VIDEO

Se il video non dovesse essere più disponibile scrivi a indytab@googlemail.com. Grazie!
COMMENTA QUESTA TABLATURA
Devi avere JavaScript attivato per poter commentare! (misura antispam)