IndyTab Logo

BETA VERSION - 321 TABS DISPONIBILI

Cerca una tablatura nel nostro archivio:

Gruppo Canzone


Elenco dei gruppi presenti su IndyTab
Lista di tutte le tablature di IndyTab
DISCLAIMER
Questa tablatura rappresenta l'interpretazione della canzone da parte dell'autore. Può essere usata per scopi di studio, insegnamento e ricerca.

La tab è liberamente riproducibile in forum, blog, siti web (ad eccezione degli archivi di tablature online) e stampabile. Non è obbligatorio ma molto gradito citare la fonte (cioè IndyTab), meglio con un link di rimando al nostro sito.
ACCORDATORE
Per accordare la tua chitarra puoi usare il nostro accordatore online
TAB REQUEST
Stai cercando una tablatura? Suggeriscila compilando il modulo sottostante!

Gruppo
Titolo
Tua Mail

(la tua mail verrà usata per ricontattarti quando la tablatura sarà online)
DELLO STESSO GRUPPO

Peter Punk // Chi Sei?

Tablatura tratta dall'album: XI

(clicca qui per la legenda)

(clicca qui per il video)

    C  G  A  F
e|-------------------|
B|-------------------|
G|--5----------------|
D|--5--5--7--3-------|
A|--3--5--7--3-------|
E|-----3--5--1-------|


--------------------------------------------------------------------------


STROFA:

[C]                                    G
Sai che vuol dire soffrire le pene d'amore?

[F]                                G
Starsene a casa seduti da soli per ore?

F                 G
Senza nessuno che sappia capire

A                 G
Senza nessuno che ti sappia dire

F               G        C    [C]
come è finita e come finirà



RITORNELLO:

C   G    A         F
Chi sei? Per farmi male dentro

C   G    A         F
Chi sei? Per darmi sempre contro

C   G    A         F
Chi sei? Non posso proprio stare

e|----------------------------------------|
B|----------------8-8-8-8-8-8-8-8-8-------|
G|----------------------------------------|
D|----------------5-5-5-5-5-5-5-5-5-------|
A|----------------------------------------|
E|----------------------------------------|
   G
   solo illuso ad aspettare



STROFA:

[C]                                    G
Che si avvicini qualcuno e mi faccia sognare

[F]                                  G
Dimenticare i momenti più bui di una storia

F                    G
E ritornare a essere quello di prima

A               G
Riconquistare tutta la mia stima

F                    G        C    [C]
Per poi capire anche come finirà



RITORNELLO:
Ripetere il ritornello.



PONTE:

[A]                    F
Ma non c'è piu nessuno qui con me

[C]               G
La mia stessa solitudine

[C]          G..
Ma quanto ho sofferto

[A]     F..
Ed ogni mio rimpianto

[C]         G..             F(p.m.)        
Mi ha preso dentro e non mi lascia

e|--------------------------------------------------|
B|--------------------------------------------------|
G|---------------12--10--9--7-----------------------|
D|--------------------------------------------------|
A|---------------10--8---7--5-----------------------|
E|--------------------------------------------------|
           G
   proprio più



RITORNELLO:

(suonare più volte ogni ottava)

e|----------------------------------------|
B|----------------------------------------|
G|--5-9-7----10--------9------------------|
D|----------------------------------------|
A|--3-7-5----8---------7------------------|
E|----------------------------------------|
    C   G    A         F
    Chi sei? Per farmi male dentro

e|----------------------------------------|
B|----------------------------------------|
G|--5-9-7----10--------9------------------|
D|----------------------------------------|
A|--3-7-5----8---------7------------------|
E|----------------------------------------|
    C   G    A         F
    Chi sei? Per darmi sempre contro

e|----------------------------------------|
B|----------------------------------------|
G|--5---7----10---------------------------|
D|----------------------------------------|
A|--3---5----8----------------------------|
E|----------------------------------------|
    C   G    A         F
    Chi sei? Non posso proprio stare

e|----------------------------------------|
B|----------------8-8-8-8-8-8-8-8-8-------|
G|----------------------------------------|
D|----------------5-5-5-5-5-5-5-5-5-------|
A|----------------------------------------|
E|----------------------------------------|
   G                                C..
   solo illuso ad aspettare       
VIDEO

Se il video non dovesse essere più disponibile scrivi a indytab@googlemail.com. Grazie!
COMMENTI
10/9/15 15:48, Chiara:
Le tab per il basso?

COMMENTA QUESTA TABLATURA
Devi avere JavaScript attivato per poter commentare! (misura antispam)