IndyTab Logo

BETA VERSION - 321 TABS DISPONIBILI

Cerca una tablatura nel nostro archivio:

Gruppo Canzone


Elenco dei gruppi presenti su IndyTab
Lista di tutte le tablature di IndyTab
DISCLAIMER
Questa tablatura rappresenta l'interpretazione della canzone da parte dell'autore. Può essere usata per scopi di studio, insegnamento e ricerca.

La tab è liberamente riproducibile in forum, blog, siti web (ad eccezione degli archivi di tablature online) e stampabile. Non è obbligatorio ma molto gradito citare la fonte (cioè IndyTab), meglio con un link di rimando al nostro sito.
ACCORDATORE
Per accordare la tua chitarra puoi usare il nostro accordatore online
TAB REQUEST
Stai cercando una tablatura? Suggeriscila compilando il modulo sottostante!

Gruppo
Titolo
Tua Mail

(la tua mail verrà usata per ricontattarti quando la tablatura sarà online)
DELLO STESSO GRUPPO

Black Train Jack // Leapfrog

Tablatura tratta dall'album: No Reward

(clicca qui per la legenda)

(clicca qui per il video)

     D   A   G    E
e|---------------------|
B|---------------------|
G|---7------------9----|
D|---7---7---5----9----|
A|---5---7---5----7----|
E|-------5---3---------|


--------------------------------------------------------------------------


RIFF1:
(* play many times)
e|--------------------------------|
B|--------------------------------|
G|---7---/9---/12----11-9-11------|
D|--------------------------------|
A|---5---/7---/10----9--7-9-------|
E|---*----*----*------------------|


INTRO:

e|-------------------------------------7--------------|
B|--10---------10----------10------------10-----------|
G|-----7-7-7------7-7-77------7-7-7---------7--7-7----|
D|----------------------------------------------------|   X2
A|----------------------------------------------------| 
E|----------------------------------------------------|


e|-------------------------------------7--------------|
B|--10---------10----------10------------10-----------|
G|-----7-7-7------7-7-77------7-7-7---------7--7-7----|
D|----------------------------------------------------|   X3
A|----------------------------------------------------|
E|----------------------------------------------------|
    D..

e|----------------------------------------------------|
B|--10---------10----------10-------------------------|
G|-----7-7-7------7-7-77------7-7-7---777-7-----------|
D|----------------------------------------------------|   
A|----------------------------------------------------|
E|----------------------------------------------------|
    D..                    pickslide



VERSE 1:
(p.m.)

D          G           E          A
Laws of simplicity let me try to abide

D            G             E                   A
Come let the system try to ride me through the tide

RIFF1
I feel my energy pulsating through the room

RIFF1
I think this mix will fall together pretty soon



CHORUS:

    D
And I sit by with all my guns

     G                         A       
They thought they had it ended up with none

D
Like leapfrog someone jumped my space

G                 A  
No more summer complacent days

    D
And I sit by with all my guns

     G                         A       
They thought they had it ended up with none

D
Like leapfrog someone jumped my space

G                 A       
No more summer complacent days

e|-------------------------------------7--------------|
B|--10---------10----------10------------10-----------|
G|-----7-7-7------7-7-77------7-7-7---------7--7-7----|
D|----------------------------------------------------|  
A|----------------------------------------------------|
E|----------------------------------------------------|
    D..                                
                                       I don't mind..

e|-------------------------------------7--------------|
B|--10---------10----------10------------10-----------|
G|-----7-7-7------7-7-77------7-7-7---------7--7-7----|
D|----------------------------------------------------|  
A|----------------------------------------------------|
E|----------------------------------------------------|
                                       
                                       no, I don't mind..

e|-------------------------------------7--------------|
B|--10---------10----------10------------10-----------|
G|-----7-7-7------7-7-77------7-7-7---------7--7-7----|
D|----------------------------------------------------|  
A|----------------------------------------------------|
E|----------------------------------------------------|
    D..                                
                                       I don't mind..

e|----------------------------------------------------|
B|--10---------10----------10-------------------------|
G|-----7-7-7------7-7-77------7-7-7---777-7-----------|
D|----------------------------------------------------|   
A|----------------------------------------------------|
E|----------------------------------------------------|
                           pickslide



VERSE 2:
(p.m.)

D              G           E                      A
Search for the simple way, but that they'll never find

D           G                  E           A
I think our efforts will prove worthy over time

RIFF1
I'll do it every day, I'll try it anyway

RIFF1
Until I find the one that keeps me right on line



CHORUS: repeat CHORUS (without pickslide at the end).



SOLO:

(* play many times)
e|------------------------------------------------10-10-10--|
B|------------------------------------------------10-10-10--|
G|---7---/9---/12----11-12-/14-------/16\14-----------------|
D|----------------------------------------------------------|
A|---5---/7---/10----9--10-/12-------/14\12-----------------|
E|---*----*----*------------*------------*------------------|
(pm) D    G    E     A      D    G    E      A

e|--------10--------10--------10------10--10--10------------|
B|---8/10-10---8/10-10---8/10-10----8/10--10--10------------|
G|----------------------------------------------------------|
D|----------------------------------------------------------|
A|----------------------------------------------------------|
E|----------------------------------------------------------|
     RIFF1

e|----------------------------------------------------------|
B|---8b10r8-6------6--8b10--8b10--8b10r8--6-----------------|
G|---------------7--------------------------7~--------------|
D|----------------------------------------------------------|
A|----------------------------------------------------------|
E|----------------------------------------------------------|
                                            RIFF1     

e|----------------------------------------------------------|
B|---------8b10--6------------------------------------------|
G|---7-------------7------7b9r7-----------------------------|
D|----------------------------------------------------------|
A|----------------------------------------------------------|
E|----------------------------------------------------------|
                   D..

(now playing in p.m. every note)

e|-------------------------------------7--------------|
B|--10---------10----------10------------10-----------|
G|-----7-7-7------7-7-77------7-7-7---------7--7-7----|
D|----------------------------------------------------|  
A|----------------------------------------------------|
E|----------------------------------------------------|

e|-------------------------------------7--------------|
B|--10---------10----------10------------10-----------|
G|-----7-7-7------7-7-77------7-7-7---------7--7\-----|
D|----------------------------------------------------|  
A|----------------------------------------------------|
E|----------------------------------------------------|



VERSE 3:

Laws of simplicity let me try to abide

Come let the system try to ride me through the tide

I feel my energy pulsating through the room

I think this mix will fall together pretty soon


(p.m. with pauses)

D              G           E                      A
Search for the simple way, but that they'll never find

D           G                  E           A
I think our efforts will prove worthy over time

D          G          E           A
I'll do it every day, I'll try it anyway

D       G                [E]                A
Until I find the one that keeps me right on line



FINAL CHORUS:

    D
And I sit by with all my guns

     G                         A       
They thought they had it ended up with none

D
Like leapfrog someone jumped my space

G                 A  
No more summer complacent days

    D
And I sit by with all my guns

     G                         A       
They thought they had it ended up with none

D
Like leapfrog someone jumped my space

G       A       
No more summer complacent days

e|-------------------------------------7--------------|
B|--10---------10----------10------------10-----------|
G|-----7-7-7------7-7-77------7-7-7---------7--7-7----|
D|----------------------------------------------------|  
A|----------------------------------------------------|
E|----------------------------------------------------|
    D..                                
                                       I don't mind..

e|-------------------------------------7--------------|
B|--10---------10----------10------------10-----------|
G|-----7-7-7------7-7-77------7-7-7---------7--7-7----|
D|----------------------------------------------------|  
A|----------------------------------------------------|
E|----------------------------------------------------|
                                       
                                       no, I don't mind..

e|-------------------------------------7--------------|
B|--10---------10----------10------------10-----------|
G|-----7-7-7------7-7-77------7-7-7---------7--7-7----|
D|----------------------------------------------------|  
A|----------------------------------------------------|
E|----------------------------------------------------|
    D..                                
                                       I don't mind..

e|------------------------------------7---------------|
B|--10---------10----------10-----------10------------|
G|-----7-7-7------7-7-77------7-7-7---------7---7..---|
D|----------------------------------------------------|   
A|----------------------------------------------------|
E|----------------------------------------------------|
                                                D..
VIDEO

Se il video non dovesse essere più disponibile scrivi a indytab@googlemail.com. Grazie!
COMMENTA QUESTA TABLATURA
Devi avere JavaScript attivato per poter commentare! (misura antispam)