IndyTab Logo

BETA VERSION - 321 TABS DISPONIBILI

Cerca una tablatura nel nostro archivio:

Gruppo Canzone


Elenco dei gruppi presenti su IndyTab
Lista di tutte le tablature di IndyTab
DISCLAIMER
Questa tablatura rappresenta l'interpretazione della canzone da parte dell'autore. Può essere usata per scopi di studio, insegnamento e ricerca.

La tab è liberamente riproducibile in forum, blog, siti web (ad eccezione degli archivi di tablature online) e stampabile. Non è obbligatorio ma molto gradito citare la fonte (cioè IndyTab), meglio con un link di rimando al nostro sito.
ACCORDATORE
Per accordare la tua chitarra puoi usare il nostro accordatore online
TAB REQUEST
Stai cercando una tablatura? Suggeriscila compilando il modulo sottostante!

Gruppo
Titolo
Tua Mail

(la tua mail verrà usata per ricontattarti quando la tablatura sarà online)
DELLO STESSO GRUPPO

Porno Riviste // Cosa Facciamo?

Tablatura tratta dall'album: Cosa Facciamo?

(clicca qui per la legenda)

     A    B    G     D    E    A# 
e|-----------------------------------|
B|-----------------------------------|
G|-------------------7----9----------|
D|---7----9----5-----7----9----8-----|
A|---7----9----5-----5----7----8-----|
E|---5----7----3---------------6-----|


--------------------------------------------------------------------------

INTRO:
A.. G.. D..

STROFA:
(in p.m. accentuando le pennate di passaggio)

A          G                D 
Conosci il gioco scegli una vita, 

A      G                D 
valuta tutto meglio che puoi 

A        G               D 
il tempo non aspetta nessuno 

A             G          D 
finchè hai la voce usala dai. 


(qui poweraccordi normali)

B           D            A 
Non sai dov'è la tua soluzione 

G         D                   A  (A#)
che cos'è peggio o meglio per te 

B           D             A 
ma c'è qualcuno che ti comanda 

G             D               A 
finchè sei in tempo spiegagli che... 


RIFF:

e|--------12-14-15-14-12-14-----15--14--12--14----------------|
B|--15-15--------------------3x-------------------------------|
G|------------------------------------------------------------|
D|------------------------------------------------------------|
A|------------------------------------------------------------|
E|------------------------------------------------------------|

e|--------12-14-15-14-12-14-----15--14--12--14----------------|
B|--15-15--------------------3x------------------15----------|
G|------------------------------------------------------------|
D|------------------------------------------------------------|
A|------------------------------------------------------------|
E|------------------------------------------------------------|

ACCORDI SOTTO IL RIFF:
D  A  E  G   (x2) 


STROFA:
(suonata come la prima)

A       G              D 
Nessuno ci comanda nessuno 

A            G                 D 
punta i tuoi soldi e vinci con noi 

A        G               D 
una scommessa con il destino

A             G          D  
finchè hai la voce usala dai 


B         D                A 
Non conta più nessuna opinione 

G         D                A  (A#)
non conta più la meta qual è

B          D              A  
se c'è qualcuno che ti comanda

G           D                  A  
sputagli in faccia e spiegagli che


RITORNELLO:
(x6, prime due volte insieme, poi due volte solo batteria,
poi una volta batteria e basso, l'ultima volta di nuovo insieme)

D       A          E            G  
Noi facciamo quel cazzo che vogliamo

OUTRO:
D..
COMMENTA QUESTA TABLATURA
Devi avere JavaScript attivato per poter commentare! (misura antispam)