IndyTab Logo

BETA VERSION - 321 TABS DISPONIBILI

Cerca una tablatura nel nostro archivio:

Gruppo Canzone


Elenco dei gruppi presenti su IndyTab
Lista di tutte le tablature di IndyTab
DISCLAIMER
Questa tablatura rappresenta l'interpretazione della canzone da parte dell'autore. Può essere usata per scopi di studio, insegnamento e ricerca.

La tab è liberamente riproducibile in forum, blog, siti web (ad eccezione degli archivi di tablature online) e stampabile. Non è obbligatorio ma molto gradito citare la fonte (cioè IndyTab), meglio con un link di rimando al nostro sito.
ACCORDATORE
Per accordare la tua chitarra puoi usare il nostro accordatore online
TAB REQUEST
Stai cercando una tablatura? Suggeriscila compilando il modulo sottostante!

Gruppo
Titolo
Tua Mail

(la tua mail verrà usata per ricontattarti quando la tablatura sarà online)
DELLO STESSO GRUPPO

Matrioska // 18:23

Tablatura tratta dall'album: Stralunatica

(clicca qui per la legenda)

(clicca qui per il video)

    A#  D   D#  F   Gm   F(I)   Cm       D#  A#  F    D   C   F(I)
e|--6---5---6---8---10----1-----3-----|-----------------------------|
B|--6---7---8---10--11----1-----4-----|-----------------------------|
G|--7---7---8---10--12----2-----5-----|--8-------10---7---5---------|
D|--8---7---8---10--12----3-----5-----|--8---8---10---7---5-----3---|
A|-(8)-(5)-(6)-(8)-(10)--(3)---(3)----|--6---8---8----5---5-----3---|
E|-(6)-------------------(1)----------|------6------------------1---|
          chitarra ska                        chitarra punk

--------------------------------------------------------------------------


RIFF1:

(chitarra punk + chitarra ska)

e|--------------------------------------------------|
B|-------------------------10-10-10-10-11-11-11h13--|
G|-10-10-10-10-12-12-12-12--------------------------|
D|--------------------------------------------------|
A|--------------------------------------------------|
E|--------------------------------------------------|
   A#

e|--------------------------------------------------|
B|-------------------------10-10-10-10-11-11-11h13--|
G|-11-11-11-11-12-12-12-12--------------------------|
D|--------------------------------------------------|
A|--------------------------------------------------|
E|--------------------------------------------------|
   D 

e|--------------------------------------------------|
B|-------------10-10-10-10-11-11-11-11-13-13-10-11--|
G|-12-12-12-12--------------------------------------|
D|--------------------------------------------------|
A|--------------------------------------------------|
E|--------------------------------------------------|
   D#

e|--------------------------------------------------|
B|-13--13----------10--10---------------------------|
G|---------12-10-----------12-10--------------------|
D|--------------------------------------------------|
A|--------------------------------------------------|
E|--------------------------------------------------|
   [Cm]Cm..       [F(I)]F(I)..



RIFF2:

(chitarra punk + chitarra ska)

e|--------------------------------------------------|
B|-------------------------10-10-10-10-11-11-11h13--|
G|-10-10-10-10-12-12-12-12--------------------------|
D|--------------------------------------------------|
A|--------------------------------------------------|
E|--------------------------------------------------|
   A#

e|--------------------------------------------------|
B|-------------------------10-10-10-10-11-11-11h13--|
G|-11-11-11-11-12-12-12-12--------------------------|
D|--------------------------------------------------|
A|--------------------------------------------------|
E|--------------------------------------------------|
   D 

e|-------------------------------------------------13~---|
B|-------------10-10-10-10-11-11-11-11-13-13-10-11-------|
G|-12-12-12-12-------------------------------------------|
D|-------------------------------------------------------|
A|-------------------------------------------------------|
E|-------------------------------------------------------|
   D#                                              F.. F\



INTRO:
Suonare il RIFF1 e poi il RIFF2.



STROFA:
(ritmo ska)

A#      D 
18 e 23 citofono da te

D#
poi di corsa arrivo su

F
e sul letto ci sei tu

A#
il suono del telefono

D 
tu dici è matematico

D#                          F             [F]
mio marito è uscito prima e sta arrivando qua



RITORNELLO:

(suonare il RIFF1 due volte sotto al ritornello)
(chitarra punk + chitarra ska)

    A#                  D 
Vai via rivestiti e vai via

                 D#
stavolta è colpa tua

            [Cm]Cm..      [F(I)]F(I).. A#
arriva mio marito e se ti prende mamma mia

                D 
rivestiti e vai via

                 D#
stavolta è colpa tua

             [Cm]Cm..        [F(I)]F(I).. A#
arriva mio marito è questa è ancora casa sua



RIFF:
Suonare il RIFF2.



STROFA:
(ritmo ska)

A#      D 
18 e 33 non vorrai dire che

D#
tra un minuto sarà qui

F
dimmi che non è così

A#
il suono del citofono

D 
tu dici sembra un incubo

D#                       F             [F]
mio marito è sulle scale adesso che si fa?




RITORNELLO:
Ripetere il ritornello, lasciando andare l'ultimo accordo: A#..



PONTE:

(accordi in palm muted,
 ripetere le note segnate con *)

e|---------------------------------------------|
B|---------------------------------------------|
G|--8------------------------10----------------|
D|--8------------------------8-----------------|
A|---------------------------------------------|
E|---------------------------------------------|          
    Non so come non so dove  mi nasconderò


e|---------------------------------------------|
B|---------------------------------------------|
G|--8------------------------------------------|
D|--8-------------------------5*-------3*------|
A|---------------------------------------------|
E|---------------------------------------------|  
                              Gm(ska) 
    guardo la finestra per un pò

e|-----------------------------------------------------------|
B|-----------------------------------------------------------|
G|--8--------------------------10---------------------10-----|
D|--8--------------------------8----------------------10-----|
A|-----------------------------------------------------------|
E|-----------------------------------------------------------|
                                                      F   [F] 
    non so come sono so dove e se ci riuscirò mi butterò



RITORNELLO:
Ripetere il ritornello.



RIFF:
Ripetere il RIFF1 due volte.
Sotto alla chitarra la voce ripete varie volte "Vai via"



OUTRO:

e|---------|
B|---11----|
G|---------|
D|---------|
A|---------|
E|---------|
     A#..
VIDEO

Se il video non dovesse essere più disponibile scrivi a indytab@googlemail.com. Grazie!
COMMENTA QUESTA TABLATURA
Devi avere JavaScript attivato per poter commentare! (misura antispam)