IndyTab Logo

BETA VERSION - 321 TABS DISPONIBILI

Cerca una tablatura nel nostro archivio:

Gruppo Canzone


Elenco dei gruppi presenti su IndyTab
Lista di tutte le tablature di IndyTab
DISCLAIMER
Questa tablatura rappresenta l'interpretazione della canzone da parte dell'autore. Può essere usata per scopi di studio, insegnamento e ricerca.

La tab è liberamente riproducibile in forum, blog, siti web (ad eccezione degli archivi di tablature online) e stampabile. Non è obbligatorio ma molto gradito citare la fonte (cioè IndyTab), meglio con un link di rimando al nostro sito.
ACCORDATORE
Per accordare la tua chitarra puoi usare il nostro accordatore online
TAB REQUEST
Stai cercando una tablatura? Suggeriscila compilando il modulo sottostante!

Gruppo
Titolo
Tua Mail

(la tua mail verrà usata per ricontattarti quando la tablatura sarà online)
DELLO STESSO GRUPPO

Shandon // Sea-gull Surf

Tablatura tratta dall'album: Fetish

(clicca qui per la legenda)

    Am   Dm   Em  C  G     Am  Dm  Em  C  G     A   D   E   C   G
e|--0----1----0---0--3--|--5---5---7---3--3--|---------------------|
B|--1----3----0---1--3--|--5---6---8---5--3--|---------------------|
G|--2----2----0---0--4--|--5---7---9---5--4--|------7---9---5------|
D|--2----0----2---2--5--|--7---7---9---5--5--|--7---7---9---5---5--|
A|--0---(0)---2---3--5--|--7---5---7---3--5--|--7---5---7---3---5--|
E|------------0------3--|--5--------------3--|--5---------------3--|
    chitarra pulita        accordi in barrè     chitarra distorta

--------------------------------------------------------------------------

NOTE:

Gli arrangiamenti per la chitarra sono troppo vari per essere
riportati. Spesso ci sono più di due chitarre che fanno l'accompagnamento,
con riff, arpeggi, pennate lasciate andare. Per maggior chiarezza la tab
riporta solo gli accordi del giro.



INTRO:

(* nota da suonare ripetutamente con pennate rapide)

e|----------------------------------|
B|----------------------------------|
G|----------------------------------|
D|----------------------------------|
A|---0*----1*----2*--3*--/12\*------|
E|----------------------------------|

e|--------------------------------------------------------------------|
B|--------------------------------------------------------------------|
G|--------------------------------------------------------------------|
D|--------------------------------------------------------------------|
A|--/7---7-7---7-7-7----6*--3*----0-0-2-3---0-2-3---0-0-2-3---0-2-0---|
E|--------------------------------------------------------------------|
                                  Am

e|--------------------------------------------------------------------|
B|--------------------------------------------------------------------|
G|--------------------------------------------------------------------|
D|--------------------------------------------------------------------|
A|--/7---7-7---7-7-7----6*--3*----0-0-2-3---0-2-3---0-0-2-3---0-2-0---|
E|--------------------------------------------------------------------|
     Am
 
e|--------------------------------------------------------------------|
B|--------------------------------------------------------------------|
G|------------------------------------------------2-3-2---------------|
D|--/7---7-7---7-7-7----6*--3*----0-0-2-3---0-2-3-------3-2-0---------|
A|------------------------------------------------------------3-0-----|
E|--------------------------------------------------------------------|
     Dm

e|--------------------------------------------------------------------|
B|--------------------------------------------------------------------|
G|--------------------------------------------------------------------|
D|------------------------------------------------------------2h3-2---|
A|--/7---7-7---7-7-7----6*--3*----0-0-2-3---0-2-3---0-0-2-3---------3-|
E|--------------------------------------------------------------------|
     Am

e|--------------------------------------------------------------------|
B|--------------------------------------------------------------------|
G|--------------------------------------------------------------------|
D|--------------------------------------------------------------------|
A|--------------2-3-2---------------2-3-2-----0-0--3--0---0-----------|
E|---0-0-0-3-------------0-0-0-3------------------------3-------------|
     Em                                       Am         [Am]



STROFA 1: 

Am
Well it's time for you to move away

Am
Man I told you that I need my space

Dm            Am
I wanna go in I wanna surf

Em                              Am   [Am]
I don't know rules I don't know laws



STROFA 2:

Am
I feel like darling to go farther on

Am
Surfin' more and more to reach the sky

Dm                  Am
And there remaining and there stayin' up

Em                              Am   [Am]
I don't know rules I don't know laws



RITORNELLO:

C             Am
Get your luck be alone

C          Am
Never fall and be warned

C              Dm   G       Am   [Am]
'cos you don't know what to do



STACCO:

e|--------------------------------------------------------------------|
B|--------------------------------------------------------------------|
G|--------------------------------------------------------------------|
D|--------------------------------------------------------------------|
A|--/7---7-7---7-7-7----6*--3*----0-0-2-3---0-2-3---0-0-2-3---0-2-0---|
E|--------------------------------------------------------------------|
     Am

e|--------------------------------------------------------------------|
B|--------------------------------------------------------------------|
G|--------------------------------------------------------------------|
D|------------------------------------------------2-3-2---2h3-2---2---|
A|--/7---7-7---7-7-7----6*--3*----0-0-2-3---0-2-3-------3-------3-----|
E|--------------------------------------------------------------------|
     Am

e|--------------------------------------------------------------------|
B|--------------------------------------------------------------------|
G|------------------------------------------------2-3-2---------------|
D|--/7---7-7---7-7-7----6*--3*----0-0-2-3---0-2-3-------3-2-0---------|
A|------------------------------------------------------------3-0-----|
E|--------------------------------------------------------------------|
     Dm

e|--------------------------------------------------------------------|
B|--------------------------------------------------------------------|
G|--------------------------------------------------------------------|
D|------------------------------------------------------------2h3-2---|
A|--/7---7-7---7-7-7----6*--3*----0-0-2-3---0-2-3---0-0-2-3---------3-|
E|--------------------------------------------------------------------|
     Am

e|--------------------------------------------------------------------|
B|--------------------------------------------------------------------|
G|--------------------------------------------------------------------|
D|--------------------------------------------------------------------|
A|--------------2-3-2---------------2-3-2-----0-0--3--0---0-----------|
E|---0-0-0-3-------------0-0-0-3------------------------3-------------|
     Em                                       Am         [Am]



STROFA 3:

Am
Keep in mind I'm not as green as you

Am
Babes a free seagull is flyin' away

Dm               Am
Aiming at eagles aiming at hawks

Em                              Am   [Am]
I don't know rules I don't know laws



RITORNELLO:

e|------------------------------------|
B|------------------------------------|
G|------------------------------------|
D|------------------------------------|
A|---0-0-0-2-0-3----------------------|
E|------------------------------------|
               C             Am
               Get your luck be alone

C          Am
Never fall and be warned

C              Dm   G       Am   
'cos you don't know what to do

C              Dm   G       Am  Am..
'cos you don't know what to do
COMMENTA QUESTA TABLATURA
Devi avere JavaScript attivato per poter commentare! (misura antispam)