IndyTab Logo

BETA VERSION - 321 TABS DISPONIBILI

Cerca una tablatura nel nostro archivio:

Gruppo Canzone


Elenco dei gruppi presenti su IndyTab
Lista di tutte le tablature di IndyTab
DISCLAIMER
Questa tablatura rappresenta l'interpretazione della canzone da parte dell'autore. Può essere usata per scopi di studio, insegnamento e ricerca.

La tab è liberamente riproducibile in forum, blog, siti web (ad eccezione degli archivi di tablature online) e stampabile. Non è obbligatorio ma molto gradito citare la fonte (cioè IndyTab), meglio con un link di rimando al nostro sito.
ACCORDATORE
Per accordare la tua chitarra puoi usare il nostro accordatore online
TAB REQUEST
Stai cercando una tablatura? Suggeriscila compilando il modulo sottostante!

Gruppo
Titolo
Tua Mail

(la tua mail verrà usata per ricontattarti quando la tablatura sarà online)
DELLO STESSO GRUPPO

Persiana Jones // Un Giorno Nuovo

Tablatura tratta dall'album: Puerto Hurraco

(clicca qui per la legenda)

(clicca qui per il video)

    C#  A#m  F#   Fm       C# A#m  F#  D#  G#(XI) F   D
e|--4----1---2----1-----|---------------------------------|
B|--6----2---2----1-----|---------------------------------|
G|--6----3---3----1-----|--6---3-------8----13--------7---|
D|--6----3---4----3-----|--6---3---4---8----13----3---7---|
A|-(4)--(1)-(4)--(3)----|--4---1---4---6----11----3---5---|
E|----------(2)--(1)----|----------2--------------1-------|
       chitarra ska               chitarra punk

--------------------------------------------------------------------------


INTRO:
(chitarra ska)
C# Fm A#m F# x2



STROFA:
(chitarra ska)

C#             Fm          A#m           F# + RIFF1
Giorni che non passano tra casa mia e il bar

C#         Fm         A#m           F#    pikslide
rido e so' che non ho voglia d'aspettar


(chitarra punk, suonando gli accordi F, A# e F# in p.m.)

C#  F    A#        F#
una cosa strana in testa che

C#     F      A#  F#
non mi lascia vivere perche'

C#  F         A#  F#    D#            (D/D#)
una spinta un'interesse che non trovo piu'

G#(XI)
che mi aiuti un po'

RIFF1
e|------------------------------------|
B|------------------------------------|
G|------------------------------------|
D|--------------3--6--3--6------------|
A|-----4--4--4-----------4------------|
E|------------------------------------|



RITORNELLO:
(ritmica ska, ripetere le ottave più volte)
e|--------------------------------------------------|
B|--------------------------------------------------|
G|--6----------8------------10----------------11----|
D|--------------------------------------------------|
A|--4----------6------------8-----------------9-----|
E|--------------------------------------------------|
    C#         Fm           A#                F#
    eh sto apettando ancora un giorno nuovo sarà

e|--------------------------------------------------|
B|---------------------------------<------p.m.---->-|
G|--6---------5-----------3-------------------------|
D|--------------------------------------4-------4---|
A|--4---------3-----------1-------------4-------4---|
E|----------------------------------2-2-2---2-2-2---|
    C#        Fm          A#        F#
    eh la mia vita ancora ricomincerà



STROFA:
(chitarra ska)

C#            Fm           A#m        F# + RIFF1
se non hai pensieri che ti possano turbar

C#          Fm           A#m           F#
se non c'e' nulla che ti possa far tornar


(chitarra punk, suonando gli accordi F, A# e F# in p.m.)

C#    F     A#      F#
trovi tutto nuovo intorno a te

C#    F     A#     F#
trovi bello quello che non c'e'

C#  G#        A#  F#
una spinta un'interesse

D#           (D/D#) G#(XI)
quello che non vuoi tu non l'avrai mai



RITORNELLO:
Ripetere il ritornello.



STACCO:
(accordi ska)

C# Fm A#m F# (F# punk, qualche pennata in p.m.)  x2



STROFA:
(chitarra ska)

C#     Fm        A#m      F# + RIFF1
ora si che mi va vivere cosi'

C#          Fm           A#m         F#
non ho piu' intorno a me chi non capira'


(chitarra punk, suonando gli accordi F, A# e F# in p.m.)

C#  F      A#    F#
una storia senza limite

C#  F    A#    F#
una vita senza regole

C#  F         A#  F#
una spinta un interesse

D#           (D/D#) G#(XI)
che ti aiuti un po' come aiuta me



RITORNELLO:
Ripetere il ritornello.



STACCO:
(accordi punk)

C# F(p.m.) A#(p.m.) F#(p.m.)  x3

C# F(p.m.) A#(p.m.) [F#]

C# F A# F# C# F A#



RITORNELLO:
Ripetere il ritornello due volte.



OUTRO:
(accordi punk)

C#(p.m.) F(p.m.) A#(p.m.) F#(p.m.) [C#]
VIDEO

Se il video non dovesse essere più disponibile scrivi a indytab@googlemail.com. Grazie!
COMMENTA QUESTA TABLATURA
Devi avere JavaScript attivato per poter commentare! (misura antispam)