IndyTab Logo

BETA VERSION - 321 TABS DISPONIBILI

Cerca una tablatura nel nostro archivio:

Gruppo Canzone


Elenco dei gruppi presenti su IndyTab
Lista di tutte le tablature di IndyTab
DISCLAIMER
Questa tablatura rappresenta l'interpretazione della canzone da parte dell'autore. Può essere usata per scopi di studio, insegnamento e ricerca.

La tab è liberamente riproducibile in forum, blog, siti web (ad eccezione degli archivi di tablature online) e stampabile. Non è obbligatorio ma molto gradito citare la fonte (cioè IndyTab), meglio con un link di rimando al nostro sito.
ACCORDATORE
Per accordare la tua chitarra puoi usare il nostro accordatore online
TAB REQUEST
Stai cercando una tablatura? Suggeriscila compilando il modulo sottostante!

Gruppo
Titolo
Tua Mail

(la tua mail verrà usata per ricontattarti quando la tablatura sarà online)
DELLO STESSO GRUPPO

Peter Punk // Ripetente

Tablatura tratta dall'album: Peter Punk

(clicca qui per la legenda)

(clicca qui per il video)

   F#(II) D  A  E  F#  C#
e|---------------------------|
B|---------------------------|
G|--------7-----9--11--6-----|
D|--4-----7--7--9--11--6-----|
A|--4-----5--7--7---9--4-----|
E|--2--------5---------------|


--------------------------------------------------------------------------

Le ottave presenti nella canzone sono suonate con l'effetto wah-wah.


INTRO:

e|-------------------------------------------------------------|
B|-7----7-10-10-9-5----5-6-6-6--7----7-10-10-9-5----5-12-12-12-|
G|-------------------------------------------------------------|x2
D|-4----4-7--7--6-2----2-3-3-3--4----4-7--7--6-2----2-9--9--9--|
A|-------------------------------------------------------------|
E|-------------------------------------------------------------|
   F#(II) D       A      C#     F#(II) D       A      E
   (rimica a colpi)



STROFA:
(palm muted)

F#(II)  D             A           C#
Matematica, inglese e poi grammatica e latino

F#(II)         D            A          E
Storia e geografia, ginnastica e le poesie a memoria

(distorto normale)

D          C#
E se parli qui il libretto

(di nuovo palm muted)

F#(II)      D            A                C#
Tutta ipocrisia, docenti che ce l’han con te bocciato,

F#(II)    D              A                E
Preferiscono chi è larva ormai che studia assai per



RITORNELLO:
(distorto normale)

D           C#  
Diventare una farfalla

        F#   D
che poi vola via

A      E               F#    D A      E         F#     D
Lei ha fatto il grande salto-o il mio esito è bocciato-o

A   E       D     C#
Ripetente sarò



RIFF:
Ripetere l'intro, sempre x2



STROFA:
(distorto normale)

F#(II)      D             A              C#
Mi costringono a studiare chi non fa per me il duce

F#(II)     D           A      E
Un balilla non diventerò solo per

D           C#
Diventare una farfalla



STACCO:
(palm muted)
F#(II) D C#

e|---------------------|
B|--7--10-9-7-5-7--6---|
G|---------------------|x3
D|--4---7-6-4-2-4--3---|
A|---------------------|
E|---------------------|
    F#(II)      D  C#



STROFA:

F#(II)..     D..        A..          C#..
Son 2 anni ormai ripeto qui in terza B che palle

(suonare più volte le ottave)
e|--------------------------------------------------|
B|-7-----------10------------5--------------12------|
G|--------------------------------------------------|
D|-4------------7------------2---------------9------|
A|--------------------------------------------------|
E|--------------------------------------------------|
   F#(II)..     D..          A..             E..
   Non ne posso più di gente che ce l’ha con me.



ULTIMO RITORNELLO:
(distorto normale)

D           C#  
Diventare una farfalla

        F#   D
che poi vola via

A      E               F#    D A      E         F#     D
Lei ha fatto il grande salto-o il mio esito è bocciato-o

A   E       D     [C#][C#][C#] C#(p.m.) F#(II)..
Ripetente sarò
VIDEO

Se il video non dovesse essere più disponibile scrivi a indytab@googlemail.com. Grazie!
COMMENTA QUESTA TABLATURA
Devi avere JavaScript attivato per poter commentare! (misura antispam)