IndyTab Logo

BETA VERSION - 321 TABS DISPONIBILI

Cerca una tablatura nel nostro archivio:

Gruppo Canzone


Elenco dei gruppi presenti su IndyTab
Lista di tutte le tablature di IndyTab
DISCLAIMER
Questa tablatura rappresenta l'interpretazione della canzone da parte dell'autore. Può essere usata per scopi di studio, insegnamento e ricerca.

La tab è liberamente riproducibile in forum, blog, siti web (ad eccezione degli archivi di tablature online) e stampabile. Non è obbligatorio ma molto gradito citare la fonte (cioè IndyTab), meglio con un link di rimando al nostro sito.
ACCORDATORE
Per accordare la tua chitarra puoi usare il nostro accordatore online
TAB REQUEST
Stai cercando una tablatura? Suggeriscila compilando il modulo sottostante!

Gruppo
Titolo
Tua Mail

(la tua mail verrà usata per ricontattarti quando la tablatura sarà online)
DELLO STESSO GRUPPO

Peter Punk // Sbandati

Tablatura tratta dall'album: Peter Punk

(clicca qui per la legenda)

    B  F#  G#  E
e|-----------------|
B|-----------------|
G|--4--------------|
D|--4--4---6---2---|
A|--2--4---6---2---|
E|-----2---4---0---|


--------------------------------------------------------------------------


STROFA:


Migliaia d’occhi su di noi


C’è chi già pensa al classico sbandato


Marchiati a fuoco come buoi

                            E            F#
Ormai i mass media mi hanno circondato e imprigionato

B(p.m.)              F#(p.m.)
Manifestar per la città

G#(p.m.)           E(p.m.)F#(p.m.)
Manganellati dalla po - lizia

B(p.m.)           F#(p.m.)
Uniti chi ci fermerà

G#(p.m.)                E            F#           (pickslide)
La differenza è che noi siamo in 4 e loro in cento



RITORNELLO:

B            F#            G#         E     F# 
Pensala come vuoi telegiornali infangano la strada

B               F#              G#         E      F#
Parlano male di noi puntando il dito verso quelli come voi



RIFF:

(suonare più volte le ottave segnate col puntino)
e|------------------------------------------------|
B|--.---.-----------.-----------.-----------.-----|
G|--4---6---9-8-6-4-4-----------6---9-8-6-9-11----|
D|------------------------------------------------|
A|--2---4---7-6-4-2-2-----------4---7-6-4-7-9-----|
E|------------------------------------------------|
    B   F#  G#      E F#  B     F#  G#      E  F#



STACCO:

B F# G# [E]
            GO!

B F# G# [E]
            GO!

B F# G# [E]
            GO!

e|-----------------|
B|-----------------|
G|------8--6--4----|
D|-----------------|
A|------6--4--2----|
E|-----------------|
   B F# G#   [E]



STROFA:

B(p.m.)           F#(p.m.)
Destinazione carcere

G#(p.m.)              E(p.m.) F#(p.m.)
Giostrare la tua vita tra le  sbarre

B(p.m.)               F#(p.m.)
In mezzo a gente come te

G#(p.m.)                       E             F#    (pickslide)
Che spacca il culo ad un distintivo odiato paraculato



RITORNELLO:
Ripetere il ritornello.



RIFF:
Ripetere il riff.



STACCO:
Ripetere lo stacco.



SOLO:

e|-------------------------------------------------------------|
B|-----------------------------------------------------9-------|
G|--/9-9-9-9---11b13--11b13r11b13r11--9-8-9-8---8-9-11---------|
D|--/9-9-9-9---------------------------------------------------|
A|-------------------------------------------------------------|
E|-------------------------------------------------------------|
     B         F#                       G#      E   F#

e|-------------------------------------------------------------|
B|----------------------------------------------12-10-9--------|
G|---11-9--9-9--11b13--11b13r11b13r11--9-8-11-----------11-----|
D|---9---------------------------------------------------------|
A|-------------------------------------------------------------|
E|-------------------------------------------------------------|
     B          F#                       G#     E     F#



RITORNELLO:
Ripetere il ritornello.



RIFF:
Ripetere il riff.



STACCO:
Ripetere lo stacco.
COMMENTA QUESTA TABLATURA
Devi avere JavaScript attivato per poter commentare! (misura antispam)