IndyTab Logo

BETA VERSION - 321 TABS DISPONIBILI

Cerca una tablatura nel nostro archivio:

Gruppo Canzone


Elenco dei gruppi presenti su IndyTab
Lista di tutte le tablature di IndyTab
DISCLAIMER
Questa tablatura rappresenta l'interpretazione della canzone da parte dell'autore. Può essere usata per scopi di studio, insegnamento e ricerca.

La tab è liberamente riproducibile in forum, blog, siti web (ad eccezione degli archivi di tablature online) e stampabile. Non è obbligatorio ma molto gradito citare la fonte (cioè IndyTab), meglio con un link di rimando al nostro sito.
ACCORDATORE
Per accordare la tua chitarra puoi usare il nostro accordatore online
TAB REQUEST
Stai cercando una tablatura? Suggeriscila compilando il modulo sottostante!

Gruppo
Titolo
Tua Mail

(la tua mail verrà usata per ricontattarti quando la tablatura sarà online)
DELLO STESSO GRUPPO

Persiana Jones // Ore E Giorni

Tablatura tratta dall'album: Agarra La Onda

(clicca qui per la legenda)

    D    A     G#    G    Bm    F#m   C#     B   F#  G   A   D  F#(IX)
e|--5----5-----4-----3-----2-----2-----4--|-----------------------------|
B|--7----5-----4-----3-----3-----2-----6--|-----------------------------|
G|--7----6-----5-----4-----4-----2-----6--|--4---------------7----11----|
D|-(7)--(7)---(6)---(5)---(4)---(4)---(6)-|--4---4---5---7---7----11----|
A|-(5)--(7)---(6)---(5)---(2)---(4)---(4)-|--2---4---5---7---5----9-----|
E|------(5)---(4)---(3)---------(2)-------|------2---3---5--------------|
            Accordi ska                         Accordi distorti

--------------------------------------------------------------------------


INTRO:
(ritmo ska)

* nota suonata e poi sollevata di tonalitá con la leva

e|--------------------------------------------------------------|
B|----------3-----3h5-2------------------2/3----3\2----2\0--0---|
G|-------------------------------2/4----------------------------|
D|--6*----------------------------------------------------------|
A|--------------------------------------------------------------|
E|--------------------------------------------------------------|
            D         A  (A)(G#)   G       D       (C#)     Bm 

e|----------------------------------------|
B|----2/5--2------------------------------|
G|---------------2/4------4/6-----7-------|
D|----------------------------------------|
A|----------------------------------------|
E|----------------------------------------|
           F#m     G        A     D



STROFA 1:
(ritmo ska)

D                             A  (A)(G#) G
Chiuso dentro un'auto che non va

G                D  (C#) Bm
da mezz?ora sono qua

Bm                F#m  
aspettando che si muova

G        A   
passo il tempo e penso



STACCO:
(accordi distorti)

B F# G A



STROFA 2:
(ritmo ska)

D                          A  (A)(G#) G
Guardo giro vedo intorno a me

G                   D  (C#) Bm
persone che non rivedrò

Bm                  F#m  
sguardi vuoti che riflettono per me

G        A   
e la mia rabbia aumenta



RITORNELLO:
(accordi distorti)

B          F#
Ore giorni mesi passerò

G                A            D  F#(IX)    
chiuso dentro un'auto in coda

B          F#
ore giorni mesi passerò

G          A           
aspettando che si muova



RIFF (X2):
(accordi distorti)

e|----------------------------------------------------------|
B|----------------------------------------------------------|
G|----7-----11--9-----7------11--9----4------7------9-------|
D|----------------------------------------------------------|
A|----5-----9---7-----5------9---7----2------5------7-------|
E|----------------------------------------------------------|
      D               F#(IX)          G      A      G



STROFA 3:
(ritmo ska)

D                          A  (A)(G#) G
Penso e la mia mente se ne va

G                      D  (C#) Bm
non mi accorgo d'esser qua

Bm                    F#m  
più non vedo quel che c'è intorno a me

G            A  
e intanto il tempo vola



PONTE:
(accordi distorti, in p.m.)

F#     G            D
Con la mente posso avere

      F#             G   
tutto quello che non so

      D              A        G
tutto quello che non ho visto mai

F#      G           D
Posso andare via di qua

    F#          G
e sognare posti che

      D            A         G  
io di certo non vedrò stando qua



RIFF: come sopra, sempre x2



STROFA 3: ripetere la STROFA 1



RITORNELLO: come sopra


OUTRO:
(accordi distorti)

e|------------------------------------------------------------|
B|------------------------------------------------------------|
G|----7-----11--9-----7------11--9-----------------12-11-9-7--|
D|------------------------------------9----7-9-7--------------|
A|----5-----9---7-----5------9---7-----------------10-9--7-5--|
E|------------------------------------7----5-7-5--------------|
      D               F#(IX)          G      A     G      [D]
COMMENTA QUESTA TABLATURA
Devi avere JavaScript attivato per poter commentare! (misura antispam)