IndyTab Logo

BETA VERSION - 321 TABS DISPONIBILI

Cerca una tablatura nel nostro archivio:

Gruppo Canzone


Elenco dei gruppi presenti su IndyTab
Lista di tutte le tablature di IndyTab
DISCLAIMER
Questa tablatura rappresenta l'interpretazione della canzone da parte dell'autore. Può essere usata per scopi di studio, insegnamento e ricerca.

La tab è liberamente riproducibile in forum, blog, siti web (ad eccezione degli archivi di tablature online) e stampabile. Non è obbligatorio ma molto gradito citare la fonte (cioè IndyTab), meglio con un link di rimando al nostro sito.
ACCORDATORE
Per accordare la tua chitarra puoi usare il nostro accordatore online
TAB REQUEST
Stai cercando una tablatura? Suggeriscila compilando il modulo sottostante!

Gruppo
Titolo
Tua Mail

(la tua mail verrà usata per ricontattarti quando la tablatura sarà online)
DELLO STESSO GRUPPO

Shandon // Virus

Tablatura tratta dall'album: Not So Happy To Be Sad

(clicca qui per la legenda)

      C#   F#     G#   
e|----------------------------|
B|----------------------------|
G|----6-----------------------|
D|----6----4------6-----------|
A|----4----4------6-----------|
E|---------2------4-----------|


--------------------------------------------------------------------------

INTRO:

e|-------------------------------------------|
B|-----6-6-6---7-7-7---4-4--4--4--4----------|
G|-----6-6-6---6-6-6---6-6--6--6--6----------|
D|-------------------------------------------|
A|-------------------------------------------|
E|-------------------------------------------|
       C#      F#      G#  

e|-------------------------------------------|
B|-----6-6-6---7-7-7---4-4--9--9--9----------|
G|-----6-6-6---6-6-6---6-6--6--6--6----------|
D|-------------------------------------------|
A|-------------------------------------------|
E|-------------------------------------------|
       C#      F#      G#  

e|-------------------------------------------|
B|-----6-6-6---7-7-7---4-4--4--4--4----------|
G|-----6-6-6---6-6-6---6-6--6--6--6----------|
D|-------------------------------------------|
A|-------------------------------------------|
E|-------------------------------------------|
       C#      F#      G#  

e|-------------------------------------------|
B|-----6-6-6---7-7-7---9-9--9--9--9----------|
G|-----6-6-6---6-6-6---6-6--6--6--6----------|
D|-------------------------------------------|
A|-------------------------------------------|
E|-------------------------------------------|
       C#      F#      G#         [G#]

STROFA:

C#    F#        C#    F# 
Facile è sempre facile
   
           C#          F#             G#  XX
Puntare il dito e dire quello che non va

C#   F#        C#   F#       C#    
Avida la bocca avida di considerazioni

F#          G#  
Che nemmeno sai
 
F#(p.m.)          C#(p.m.) 
Cambia il tempo e cambia la realtà

F#(p.m.)                  G#   
Ma chi non cambia qui sei tu


Nella seconda parte della strofa viene ripetuto 2 volte il RIFF2

e|----------------|
B|----------------|
G|----6-----------|
D|-------4/6------|
A|----------------|
E|----------------|


RITORNELLO:

C# F#  G#  
Oh oh oh     sei proprio un grande attore

C# F#  G#  
Oh oh oh     un gran sostenitore

C# F#  G#  
Oh oh oh     della rivoluzione

F#..                G#  
Un virus della società


STACCO: come INTRO


STROFA:

Abile sei proprio abile
                                (pickslide)
Nel formulare frasi di comodità

C#     F#           C#     F# 
Stupido sei proprio stupido

       C#             F#        G#  
La tua imbecillità mi fa capire che

F#(p.m.)          C#(p.m.)          (sempre con RIFF2)
Cambia il tempo e cambia la realtà

F#(p.m.)                  G#   
Ma chi non cambia qui sei tu


RITORNELLO: come sopra


STACCO: come INTRO


STROFA:

F#(p.m.)          C#(p.m.)         (sempre con RIFF2)
Cambia il tempo e cambia la realtà

F#(p.m.)                  G#   
Ma chi non cambia qui sei tu


RITORNELLO: 

C# F#  G#  
Oh oh oh     sei proprio un grande attore

C# F#  G#  
Oh oh oh     un gran sostenitore

C# F#  G#  
Oh oh oh     della rivoluzione

F#..                G#..   C#..
Un virus della società
COMMENTA QUESTA TABLATURA
Devi avere JavaScript attivato per poter commentare! (misura antispam)