IndyTab Logo

BETA VERSION - 321 TABS DISPONIBILI

Cerca una tablatura nel nostro archivio:

Gruppo Canzone


Elenco dei gruppi presenti su IndyTab
Lista di tutte le tablature di IndyTab
DISCLAIMER
Questa tablatura rappresenta l'interpretazione della canzone da parte dell'autore. Può essere usata per scopi di studio, insegnamento e ricerca.

La tab è liberamente riproducibile in forum, blog, siti web (ad eccezione degli archivi di tablature online) e stampabile. Non è obbligatorio ma molto gradito citare la fonte (cioè IndyTab), meglio con un link di rimando al nostro sito.
ACCORDATORE
Per accordare la tua chitarra puoi usare il nostro accordatore online
TAB REQUEST
Stai cercando una tablatura? Suggeriscila compilando il modulo sottostante!

Gruppo
Titolo
Tua Mail

(la tua mail verrà usata per ricontattarti quando la tablatura sarà online)
DELLO STESSO GRUPPO

Los Fastidios // Johnny & The Queer Boot Boys

Tablatura tratta dall'album: Siempre Contra

(clicca qui per la legenda)

(clicca qui per il video)

    A  D  E  F#
e|----------------|
B|----------------|
G|-----7--9--11---|
D|--7--7--9--11---|
A|--7--5--7--9----|
E|--5-------------|


--------------------------------------------------------------------------


INTRO:
(a colpi)
A D A E

e|--------------------------------------------------------------------|
B|--------------------------------------------------------------------|
G|-------6-6----------6-6------------6-6---------9-9-9-9-9-9-7-6------|
D|----7------9-7-9-7------9-7-9---7------9-7-9-------------------9-7--|
A|--------------------------------------------------------------------|
E|--------------------------------------------------------------------|
   [E]A            D           [D]A              E



STROFA:

(palm muted)

A
Una vita solo fino ad adesso

D
La paura anche di te stesso

A
Non volevi uscire da quella porta

E
Sempre chiusa fino alla svolta


(una chitarra palm muted e una chitarra con accordi aperti)

A
Hai trovato la forza per uscire

D
Dal buio della solitudine,

A
Una band, il vero inizio

E
Tra amici veri senza pregiudizio



PONTE:

F#     E          D   
Quando hai capito che

(ripetere le ottave più volte)
e|----------------------------------------|
B|---------7---9-------------10-----------|
G|----------------------------------------|
D|---------4---6-------------7------------|
A|----------------------------------------|
E|----------------------------------------|
   [D] (E) F#   E             D  
           Il diverso non sei te,

[D] F#    E           D                 [D](E)F#
    Ma bensi la gente che non accetta la libertà

(ripetere le ottave più volte)
e|-----------------------------------------------------------------|
B|--7-------9------------10--------------------------12------------|
G|-----------------------------------------------------------------|
D|--4-------6------------7---------------------------9-------------|
A|-----------------------------------------------------------------|
E|-----------------------------------------------------------------|
    F#      E            D                           E                 
    E non capisce quanto vale la diversità in questa piatta società



CORO:
e|-----------------------------------------------------------|
B|-----------------------------------------------------------|
G|-----6-6----------6-6----------6-6----------6-6------------|
D|--7------9-7-9-7------9-7-9-7------9-7-9-7------9-7-9-7----|
A|-----------------------------------------------------------|
E|-----------------------------------------------------------|
    A            D            A            D
 Oh oh        oh oh        oh oh        oh oh



STROFA:

(palm muted)

A
oggi guardi indietro e vedi

D                              A
La disperazione di quei giorni neri

A
Non avresti mai pensato

E
Di trovar gli amici che hai trovato


(una chitarra palm muted e una chitarra con accordi aperti)

A
E ti guardi allo specchio e sei

D
Orgoglioso di tutto cio che fai

A
Della forza che oggi puoi

E
Oi! oi! sei uno di noi!



PONTE:

F#     E          D   
Perché hai capito che

(ripetere le ottave più volte)
e|----------------------------------------|
B|---------7---9-------------10-----------|
G|----------------------------------------|
D|---------4---6-------------7------------|
A|----------------------------------------|
E|----------------------------------------|
   [D] (E) F#   E             D  
           Il diverso non sei te,

[D] F#    E           D                 [D](E)F#
    Ma bensi la gente che non accetta la libertà

(ripetere le ottave più volte)
e|-----------------------------------------------------------------|
B|--7-------9------------10--------------------------12------------|
G|-----------------------------------------------------------------|
D|--4-------6------------7---------------------------9-------------|
A|-----------------------------------------------------------------|
E|-----------------------------------------------------------------|
    F#      E            D                           E                 
    E non capisce quanto vale la diversità in questa piatta società



CORO:
Ripetere il CORO.



SOLO:
(accordi in palm muted)
e|------------------------------------------|
B|------------------------------------------|
G|--6-6-6-6-6-6-6----6----------------------|
D|-----------------9---9-7-----7\-----------|
A|---------------------------9--------------|
E|------------------------------------------|
    A                  D

e|------------------------------------------|
B|------------------------------------------|
G|--6-6-6-6-9-6----6-------6----------------|
D|---------------9---9-7-----7\-------------|
A|------------------------------------------|
E|------------------------------------------|
    A                D

e|------------------------------------------|
B|--------------------------7---------------|
G|--9-9-9-9-9-9-9-9---9-9-----9----6-9------|
D|------------------------------------------|
A|------------------------------------------|
E|------------------------------------------|
    A                       D

e|------------------------------------------|
B|------5------5--5-------------------------|
G|-/5-6----5-6------------------------------|
D|------------------------------------------|
A|------------------------------------------|
E|------------------------------------------|
    A             E



PONTE:

[E] F#   E          D   
    Oggi hai capito che

(ripetere le ottave più volte)
e|----------------------------------------|
B|---------7---9-------------10-----------|
G|----------------------------------------|
D|---------4---6-------------7------------|
A|----------------------------------------|
E|----------------------------------------|
   [D] (E) F#   E             D  
           Il diverso non sei te,

[D] F#    E           D                 [D](E)F#
    Ma bensi la gente che non accetta la libertà

(ripetere le ottave più volte)
e|-----------------------------------------------------------------|
B|--7-------9------------10--------------------------12------------|
G|-----------------------------------------------------------------|
D|--4-------6------------7---------------------------9-------------|
A|-----------------------------------------------------------------|
E|-----------------------------------------------------------------|
    F#      E            D                           E                 
    E non capisce quanto vale la diversità in questa piatta società



RITORNELLO:
e|-------------------------------------------|
B|-------------------------------------------|
G|------6--6---------------------------------|
D|--7----------9-------7-----9----7----9--7--|
A|-------------------------------------------|
E|-------------------------------------------|
    A                             D
 Oh oh  Johnny and the Queer Boot Boys

e|----------------------------------------|
B|----------------------------------------|
G|---6--6---------------------------------|
D|----------9-------7-----9----7----------|
A|----------------------------------------|
E|----------------------------------------|
                               A
     Johnny and the Queer Boot Boys

e|-------------------------------------------|
B|-------------------------------------------|
G|---6--6------------------------------------|
D|----------9-------7-----9----7-----9--7----|
A|-------------------------------------------|
E|-------------------------------------------|
                               D
     Johnny and the Queer Boot Boys

e|----------------------------------------|
B|----------------------------------------|
G|---6--6---------------------------------|
D|----------9-------7-----9----7----------|
A|----------------------------------------|
E|----------------------------------------|
                               A
     Johnny and the Queer Boot Boys

e|-------------------------------------------|
B|-------------------------------------------|
G|---6--6------------------------------------|
D|----------9-------7-----9----7-----9--7----|
A|-------------------------------------------|
E|-------------------------------------------|
                               D
     Johnny and the Queer Boot Boys

e|----------------------------------------|
B|----------------------------------------|
G|---6--6---------------------------------|
D|----------9-------7-----9----7----------|
A|----------------------------------------|
E|----------------------------------------|
                               A
     Johnny and the Queer Boot Boys

e|-------------------------------------------|
B|-------------------------------------------|
G|---6--6------------------------------------|
D|----------9-------7-----9----7-----9--7----|
A|-------------------------------------------|
E|-------------------------------------------|
                               D
     Johnny and the Queer Boot Boys

e|----------------------------------------|
B|----------------------------------------|
G|---6--6---------------------------------|
D|----------9-------7-----9----7----------|
A|----------------------------------------|
E|----------------------------------------|
                               A..
     Johnny and the Queer Boot Boys

(note tra < > armonici naturali)
e|----------------------------------------|
B|----------------------------------------|
G|----------------------------------------|
D|------------------------------<7>-------|
A|----------------------------<7>---------|
E|----------------------------------------|
     Johnny and the Queer Boot Boys

e|----------------------------------------|
B|----------------------------------------|
G|----------------------------------------|
D|----------------------------------------|
A|----------------------------<7>---------|
E|----------------------------------------|
     Johnny and the Queer Boot Boys

e|----------------------------------------|
B|----------------------------------------|
G|----------------------------------------|
D|------------------------------<7>-------|
A|----------------------------<7>---------|
E|----------------------------------------|
     Johnny and the Queer Boot Boys

                          A                                 
Johnny and the Queer Boot Boys

                          D
Johnny and the Queer Boot Boys

                          A
Johnny and the Queer Boot Boys

                          D
Johnny and the Queer Boot Boys

                          A
Johnny and the Queer Boot Boys

                          D
Johnny and the Queer Boot Boys

                          A
Johnny and the Queer Boot Boys

                          E
Johnny and the Queer Boot Boys

                          A..  [A][A][A]
Johnny and the Queer Boot Boys
VIDEO

Se il video non dovesse essere più disponibile scrivi a indytab@googlemail.com. Grazie!
COMMENTA QUESTA TABLATURA
Devi avere JavaScript attivato per poter commentare! (misura antispam)