IndyTab Logo

BETA VERSION - 321 TABS DISPONIBILI

Cerca una tablatura nel nostro archivio:

Gruppo Canzone


Elenco dei gruppi presenti su IndyTab
Lista di tutte le tablature di IndyTab
DISCLAIMER
Questa tablatura rappresenta l'interpretazione della canzone da parte dell'autore. Pu essere usata per scopi di studio, insegnamento e ricerca.

La tab liberamente riproducibile in forum, blog, siti web (ad eccezione degli archivi di tablature online) e stampabile. Non obbligatorio ma molto gradito citare la fonte (cio IndyTab), meglio con un link di rimando al nostro sito.
ACCORDATORE
Per accordare la tua chitarra puoi usare il nostro accordatore online
TAB REQUEST
Stai cercando una tablatura? Suggeriscila compilando il modulo sottostante!

Gruppo
Titolo
Tua Mail

(la tua mail verr usata per ricontattarti quando la tablatura sar online)
DELLO STESSO GRUPPO

Porno Riviste // La Notte Dei Leoni

Tablatura tratta dall'album: Tensione 16

(clicca qui per la legenda)

    A  D  G  C#  E  E(0)  F#  F#(II)
e|-----------------------------------|
B|-----------------------------------|
G|-----7--5--6---9--------11---------|
D|--7--7--5--6---9---2----11---4-----|
A|--7--5--3--4---7---2----9----4-----|
E|--5----------------0---------2-----|


--------------------------------------------------------------------------


INTRO:

A.. [D][D] A.. [D] [G] A.. [D][D] A.. [D] [G]



RITORNELLO:

A     C#         D      E
   Lo sai cos'      la notte dei leoni

    A                         C#         D    E
(Lo sai cos' lo sai cos' lo sai cos')   la notte dei leoni

    A                         C#     
(Lo sai cos' lo sai cos' lo sai cos')  

D           A              [F#][F#] [E][E] [D][D] (E)
oh la notte oh la notte dei



STROFA:

A(p.m.)
Ho bisogno di un mezzo che mi conduca in posti vivibili


Di una macchina comoda e di una musica che mi spinga via

       D(p.m.)        A(p.m.)
i nomi cambiano sulle uscite

           E(p.m.)
oh come un missile

A(p.m.)                                            (D)
Di un vagone F.S che in un minuto passi Milano Sud

A(p.m.)
di una mina vagante o esplode adesso o non esplode pi

       D               A
I nomi esplodono le stazioni

           E
oh sono al limite



PONTE:

C#      F#(II) A          E
Ma  la notte    la notte dei leoni

C#        F#(II) A        E
e siamo a posto    stiamo tutti buoni

C#        F#(II) A          E
C' un coltello    gioca sulla mia gola

C#        A    F#(II)  E(0)
stai piangendo c' una vita sola



RITORNELLO:

A     C#         D      E
   Lo sai cos'      la notte dei leoni

    A                         C#         D..
(Lo sai cos' lo sai cos' lo sai cos') oh, ma la notte



SOLO:
e|-----------------------------------------------------|
B|-----------------------------------------------------|
G|--6h7p6-9-6h7p6-9-------6h7p6-9-6h7p6-9-7-6-7--------|
D|-----------------------------------------------------|
A|-----------------------------------------------------|
E|-----------------------------------------------------|
    A..            [D][D] A..              [D][G]   

e|-----------------------------------------------------|
B|-----------------------------------------------------|
G|--6h7p6-9-6h7p6-9-------6h7p6-9-6h7p6-9-7-6-7--------|
D|-----------------------------------------------------|
A|-----------------------------------------------------|
E|-----------------------------------------------------|
    A..            [D][D] A..              [D][G]

e|-----------------------------------------------------|
B|-----------------------------------------------------|
G|---------9-7-6-7-6------9-----9-------9-7-6-7--------|
D|--6-7-6-------------------6-7---7-6-7----------------|
A|-|-p.m.-|--------------------------------------------|
E|-----------------------------------------------------|
    C#            F#(II)  A             E

e|-----------------------------------------------------|
B|-----------------------------9---10-9----------------|
G|---------9-7-6-7-7/9-------9---9---------------------|
D|--6-7-6----------------------------------------------|
A|-|-p.m.-|--------------------------------------------|
E|-----------------------------------------------------|
    C#               A       F#(II)   E(0)

e|-----------------------------------------------------|
B|-----------------------------------------------------|
G|---------9-7-6-7-6------9-----9-------9-7-6-7--------|
D|--6-7-6-------------------6-7---7-6-7----------------|
A|-|-p.m.-|--------------------------------------------|
E|-----------------------------------------------------|
    C#            F#(II)  A             E

e|-----------------------------------------------------|
B|-----------------9---10-9----------------------------|
G|---------9-7-6-7----------9-9------------------------|
D|--6-7-6-----------------------7-6--------------------|
A|-|-p.m.-|--------------------------------------------|
E|-----------------------------------------------------|
    C#             A   F#(II)     E(0)



STROFA:

                                                        (D)
Ho bisogno di un mezzo che mi conduca in posti vivibili

A(p.m.)
Di una macchina comoda e di una musica che mi spinga via

       D              A
i nomi cambiano sulle uscite

           E
oh come un missile

       D(p.m.)         A(p.m.)
I nomi esplodono le stazioni

           E
oh sono al limite



ULTIMO PONTE:

e|----------------------------------------|
B|----------------------------------------|
G|--------9-7-6-7-6-----------------------|
D|--6-7-6---------------------------------|
A|-|-p.m.-|-------------------------------|
E|----------------------------------------|
    C#      F#(II) A          E
    Ma  la notte    la notte dei leoni

e|----------------------------------------|
B|----------------------------------------|
G|--------9-7-6-7-6-----------------------|
D|--6-7-6---------------------------------|
A|-|-p.m.-|-------------------------------|
E|----------------------------------------|
    C#        F#(II) A        E
    e siamo a posto    stiamo tutti buoni

e|----------------------------------------|
B|----------------------------------------|
G|--------9-7-6-7-6-----------------------|
D|--6-7-6---------------------------------|
A|-|-p.m.-|-------------------------------|
E|----------------------------------------|
    C#        F#(II) A          E
    C' un coltello    gioca sulla mia gola

e|----------------------------------------|
B|-----------10---------------------------|
G|--6h7p6--9------------------------------|
D|----------------------------------------|
A|----------------------------------------|
E|----------------------------------------|
    C#        A    F#(II)       [E]       A..
    stai piangendo      c' una vita sola
COMMENTA QUESTA TABLATURA
Devi avere JavaScript attivato per poter commentare! (misura antispam)