IndyTab Logo

BETA VERSION - 321 TABS DISPONIBILI

Cerca una tablatura nel nostro archivio:

Gruppo Canzone


Elenco dei gruppi presenti su IndyTab
Lista di tutte le tablature di IndyTab
DISCLAIMER
Questa tablatura rappresenta l'interpretazione della canzone da parte dell'autore. Può essere usata per scopi di studio, insegnamento e ricerca.

La tab è liberamente riproducibile in forum, blog, siti web (ad eccezione degli archivi di tablature online) e stampabile. Non è obbligatorio ma molto gradito citare la fonte (cioè IndyTab), meglio con un link di rimando al nostro sito.
ACCORDATORE
Per accordare la tua chitarra puoi usare il nostro accordatore online
TAB REQUEST
Stai cercando una tablatura? Suggeriscila compilando il modulo sottostante!

Gruppo
Titolo
Tua Mail

(la tua mail verrà usata per ricontattarti quando la tablatura sarà online)
DELLO STESSO GRUPPO

Peter Punk // Tentazioni

Tablatura tratta dall'album: XI

(clicca qui per la legenda)

   C#  A  B  G#  E
e|--------------------|
B|--------------------|
G|-6-------------9----|
D|-6---7--9--6---9----|
A|-4---7--9--6---7----|
E|-----5--7--4--------|


--------------------------------------------------------------------------


INTRO:
(C#) (G#) A (B) (E) D# (C#) (G#) A [E][E][E] B x2



STROFA:

C#                  A                    B
aria nuova in treno non si fuma più...uooohh

               A..    B..
e se bevi cadi nel peccato..

C#                 A                   B
se disegni dei graffiti sul metrò...uooohh

                       A.. B..
sei alla stregua di un indagato...



PONTE:
e|--------------------------------------------------|
B|--------------------------------------------------|
G|-------------------------9--8--9--11-6------------|
D|--------------------------------------------------|
A|-------------------------7--6--7--9--4------------|
E|--------------------------------------------------|
   C#..   A..     B..                  C#..
     vita casta e pura

e|--------------------------------------------------|
B|--------------------------------------------------|
G|-----------------------------9--8--9--11-6--------|
D|--------------------------------------------------|
A|-----------------------------7--6--7--9--4--------|
E|--------------------------------------------------|
           A..           B..               C#
   o all'inferno te ne andrai..

           A            B            G#
il preservativo è sovversivo e tu lo sai..

A         B   [B]
ti divertirai



RITORNELLO:
(ripetere più volte le ottave della tablatura)

e|----------------------------------------------------|
B|----------------------------------------------------|
G|------6----------9------------8-----------4---------|
D|----------------------------------------------------|
A|------4----------7------------6-----------2---------|
E|----------------------------------------------------|
        C#         A            E           B
   odio ogni istituzione che mi vuole programmare

e|----------------------------------------------------|
B|----------------------------------------------------|
G|-----------6---------9--------------13-----------11-|
D|----------------------------------------------------|
A|-----------4---------7--------------11-----------9--|
E|----------------------------------------------------|
             C#        A              E            B
dentro ho un diavolo ribelle ed ho la testa per pensare

e|----------------------------------------------------|
B|----------------------------------------------------|
G|------6---------9-----------8-----------4-----------|
D|----------------------------------------------------|
A|------4---------7-----------6-----------2-----------|
E|----------------------------------------------------|
        C#        A           E           B
cedo ad ogni tentazione ma distante dal morire

e|----------------------------------------------------|
B|----------------------------------------------------|
G|---------6-------------9----------13--------11------|
D|----------------------------------------------------|
A|---------4-------------7----------11--------9-------|
E|----------------------------------------------------|
           C#            A          E         B   [B]
    faccio quello che mi pare e poi son cazzi miei



STROFA:

C#                 A                      B
se ti azzardi ad andare con lo skate...uooohh

                   A..   B..
o se vuoi anche vestirti male...

C#                A                       B
non parliamone se hai i capelli blu... uooohh

                    [A]  [B]
sei segnato come un criminale...



PONTE:
Ripetere il ponte



RITORNELLO:
Ripetere il ritornello



OUTRO:
(chitarra arpeggiata)
e|---------------------------------------------------------|
B|-5---------5---------------5------5------5---------------|
G|---6---------4--------4------6------6------4--------4----|
D|-----6---------2--4------------6------6------2--4--------|
A|--------------------2-----------------------------2------|
E|---------------------------------------------------------|

(di nuovo distorto - due volte)
e|---------------------------------------------------------------------|
B|---------------------------------------------------------------------|
G|---------------------------------------------------------------------|
D|-6-6-7-6-6-6-7-6-----------------9-9-11-9-9-9-11-9-------------------|
A|-4-4-4-4-4-4-4-4-7-7-9-7-7-7-9-7-7-7-7--7-7-7-7--7-9-9-11-9-9-9-11-9-|
E|-----------------5-5-5-5-5-5-5-5-------------------7-7-7--7-7-7-7--7-|

(C#) (G#) A (B) (E) D# (C#) (G#) A [E][E][E] B..
COMMENTI
4/6/09 23:07, NIco:
mi sembra corretta


COMMENTA QUESTA TABLATURA
Devi avere JavaScript attivato per poter commentare! (misura antispam)