IndyTab Logo

BETA VERSION - 321 TABS DISPONIBILI

Cerca una tablatura nel nostro archivio:

Gruppo Canzone


Elenco dei gruppi presenti su IndyTab
Lista di tutte le tablature di IndyTab
DISCLAIMER
Questa tablatura rappresenta l'interpretazione della canzone da parte dell'autore. Può essere usata per scopi di studio, insegnamento e ricerca.

La tab è liberamente riproducibile in forum, blog, siti web (ad eccezione degli archivi di tablature online) e stampabile. Non è obbligatorio ma molto gradito citare la fonte (cioè IndyTab), meglio con un link di rimando al nostro sito.
ACCORDATORE
Per accordare la tua chitarra puoi usare il nostro accordatore online
TAB REQUEST
Stai cercando una tablatura? Suggeriscila compilando il modulo sottostante!

Gruppo
Titolo
Tua Mail

(la tua mail verrà usata per ricontattarti quando la tablatura sarà online)
DELLO STESSO GRUPPO

Duracel // V. E. G. A.

Tablatura tratta dall'album: Domani È Come Oggi

(clicca qui per la legenda)

    G  C  D  B  
e|---------------|
B|---------------|
G|-----5--7--4---|
D|--5--5--7--4---|
A|--5--3--5--2---|
E|--3------------|


--------------------------------------------------------------------------


INTRO:
e|--------------------------------------------------------|
B|--------------------------------------------------------|
G|-----------4-------4-5-5-7---5-5-4-------4---4-5-4---4--|
D|-5-5---5-5-----7-7-----------------7-7-5-----------7----|
A|-----5--------------------------------------------------|
E|--------------------------------------------------------|
   G             D             C           G     D

e|--------------------------------------------------------|
B|--------------------------------------------------------|
G|-----------4-------4-5-5-7---5-5-4---------------7-5-4--|
D|-5-5---5-5-----7-7-----------------7-7-5--5h7-5---------|
A|-----5--------------------------------------------------|
E|--------------------------------------------------------|
   G             D             C                G   D



STROFA:
(accordi a colpi)

G                     D             C           G
Vega s'è alzato tutto triste è muto non ritorna mai

       C                           D
Eppure prima o poi qualcuno glielo deve dire

G                          B
non si beve in fretta solo per fumare

C           D          G     C D
Oh oh oh oh oh Vega oh yeah



STROFA:
(accordi normali)

G                    D             C              G
Vega ha fumato tutto triste e muto con la sua Red Bull

       C                           D
Eppure prima o poi qualcuno glielo deve dire

G                              B
non è certo una bevanda che ti può salvare

C           D          G
Oh oh oh oh oh Vega oh yeah



PONTE:
(palm muted)

C
Quando guardi il niente

G           D
chissà dove vai

C                              D
dietro la tua mente o ai fatti tuoi


e|---------------------|
B|---------------------|
G|--5-4----------------|
D|------5-5----4-------|
A|---------------5-----|
E|---------------------|
   [C]   [D]



RIPETERE L'INTRO



STROFA:
(accordi normali)

G                    D             C           G
Vega ha fumato tutto triste è muto non ritorna mai

       C                           D
Eppure prima o poi qualcuno glielo deve dire

G                          B
non si esce se non sai che cazzo fare

C            [D][D]    
Oh oh oh oh oh Vega oh yeah



OUTRO:

G       C    D
Vega oh yeah

G       C    D
Vega oh yeah

G       C    D
Vega oh yeah

G       C    D
Vega oh yeah

        G..
Vega oh yeah
COMMENTA QUESTA TABLATURA
Devi avere JavaScript attivato per poter commentare! (misura antispam)