IndyTab Logo

BETA VERSION - 321 TABS DISPONIBILI

Cerca una tablatura nel nostro archivio:

Gruppo Canzone


Elenco dei gruppi presenti su IndyTab
Lista di tutte le tablature di IndyTab
DISCLAIMER
Questa tablatura rappresenta l'interpretazione della canzone da parte dell'autore. Pu essere usata per scopi di studio, insegnamento e ricerca.

La tab liberamente riproducibile in forum, blog, siti web (ad eccezione degli archivi di tablature online) e stampabile. Non obbligatorio ma molto gradito citare la fonte (cio IndyTab), meglio con un link di rimando al nostro sito.
ACCORDATORE
Per accordare la tua chitarra puoi usare il nostro accordatore online
TAB REQUEST
Stai cercando una tablatura? Suggeriscila compilando il modulo sottostante!

Gruppo
Titolo
Tua Mail

(la tua mail verr usata per ricontattarti quando la tablatura sar online)
DELLO STESSO GRUPPO

Duracel // Voglio Ritornare Al Liceo

Tablatura tratta dall'album: Domani Come Oggi

(clicca qui per la legenda)

(clicca qui per il video)

     C    G    F    B    B*   A#
e|-----------------------------------|
B|-----------------------------------|
G|---5--------------4----5-----------|
D|---5----5----3----4----5----8------|
A|---3----5----3----2----2----8------|
E|--------3----1--------------6------|


--------------------------------------------------------------------------


INTRO:

Prima chitarra :     C   F   G    C   F   G
Seconda chitarrra:                C.. F.. G..


e|----------------------------------------------------------|
B|---8--8-8--6-5--------------------------------------------|
G|---------------5--5-5-5-5----7-5-------7-7-7-7-7-5--------|
D|---------------------------5------------------------------|
A|----------------------------------------------------------|
E|----------------------------------------------------------|
     C       G   C               F       G


e|----------------------------------------------------------|
B|---8--8-8--6-5--------------------------------------------|
G|---------------5-----------7-5-5-------7-7-7-7-7-5--------|
D|-------------------------5--------------------------------|
A|----------------------------------------------------------|
E|----------------------------------------------------------|
     C       G   C               F       G



STACCO:

C(p.m)  
B/C(p.m)



STROFA:

C(p.m.)               G(p.m.)      C(p.m.)
Dediche sui banchi, a casa se si  stanchi

F           G         C(p.m.)
Voglio ritornare al liceo

C(p.m.)             G(p.m.)       C(p.m.) 
Cicche di nascosto, crackers come pasto

F           G         C
Voglio ritornare al liceo



PRE-RITORNELLO:

G                  F
Vorrei ritornare a crescere e a volare
            
C          F         G 
ma non c' niente da fare

F       C    B*    F
potrei, ora so com'

F     C      B*    F
folle questo crescere

F     G   [G]                    C
giuro: che voglio ritornare al liceo



RITORNELLO:

C      F    G         C 
voglio ritornare al liceo

       F    G         C 
voglio ritornare al liceo
 
       F    G         C    [F][F][F][F][F] [G][G][G][G][G]
voglio ritornare al liceo



RIFF (X2):

e|----------------------------------------------------------|
B|---8--8-8--6-5--------------------------------------------|
G|---------------5-----------7-5---------7-7-7-7-7-5--------|
D|-------------------------5--------------------------------|
A|----------------------------------------------------------|
E|----------------------------------------------------------|
     C       G   C             F         G



STACCO:

C(p.m)  
B/C(p.m)



STROFA:

C(p.m.)              G(p.m.)    C(p.m.)
Frisbee nel cortile, baci sulle scale

F           G         C(p.m.)
voglio ritornare al liceo

C(p.m.)               G(p.m.)     C(p.m.)
smemoranda in bianco, compagne di banco

F           G         C
voglio ritornare al liceo



PRE-RITORNELLO::

G                  F
Vorrei ritornare a crescere e a volare
            
C          F         G 
ma non c' niente da fare

F       C    B*    F
potrei, ora so com'

F     C      B*    F
folle questo crescere

F     G   [G]                    C
giuro: che voglio ritornare al liceo


RITORNELLO:

C      F    G         C 
voglio ritornare al liceo

       F    G         C 
voglio ritornare al liceo
 
       F    G         C    
voglio ritornare al liceo



PONTE:

A#                 G 
Ora saprei sputare sulle barbie di 4C

A#                   G 
son meno provinciale ed incline a cercare guai

A#                       G 
ora che so, non cambiare mai

[G]                   C  
voglio ritornare al liceo



RITORNELLO:

C      F    G         C 
voglio ritornare al liceo

       F    G         C 
voglio ritornare al liceo
 
       F              G     
voglio ritornare al liceo



OUTRO:
C.. [C]
VIDEO

Se il video non dovesse essere pi disponibile scrivi a indytab@googlemail.com. Grazie!
COMMENTI
6/7/11 02:07, giordano:
scusami ma hai anche le tab del basso???

4/12/11 13:44, Alberto (Staff IndyTab):
Eh mi spiace, le tab che trovi qui sono tutte autoprodotte, e ci dedichiamo a tabulature per chitarra (per il momento).
Spesso comunque il giro di basso segue quello della chitarra, e questo uno di quei casi.


COMMENTA QUESTA TABLATURA
Devi avere JavaScript attivato per poter commentare! (misura antispam)