IndyTab Logo

BETA VERSION - 321 TABS DISPONIBILI

Cerca una tablatura nel nostro archivio:

Gruppo Canzone


Elenco dei gruppi presenti su IndyTab
Lista di tutte le tablature di IndyTab
DISCLAIMER
Questa tablatura rappresenta l'interpretazione della canzone da parte dell'autore. Può essere usata per scopi di studio, insegnamento e ricerca.

La tab è liberamente riproducibile in forum, blog, siti web (ad eccezione degli archivi di tablature online) e stampabile. Non è obbligatorio ma molto gradito citare la fonte (cioè IndyTab), meglio con un link di rimando al nostro sito.
ACCORDATORE
Per accordare la tua chitarra puoi usare il nostro accordatore online
TAB REQUEST
Stai cercando una tablatura? Suggeriscila compilando il modulo sottostante!

Gruppo
Titolo
Tua Mail

(la tua mail verrà usata per ricontattarti quando la tablatura sarà online)
DELLO STESSO GRUPPO

Banda Bassotti // Mockba '993

Tablatura tratta dall'album: Avanzo De Cantiere

(clicca qui per la legenda)

    G   G#  A   C   F   E   D
e|------------------------------|
B|------------------------------|
G|--------------5-----------7---|
D|--5---6---7---5---3---2---7---|
A|--5---6---7---3---3---2---5---|
E|--3---4---5-------1---0-------|


--------------------------------------------------------------------------


INTRO:

e|---------------------------------|
B|------------1--3--1h3------------|
G|---2-----------------------------|
D|---2---------------------3-------|
A|---0-----0---------------3-------|
E|-------------------------1-------|

e|---------------------------------|
B|------------5p3---1h3------------|
G|---2-----------------------------|  X2
D|---2---------------------3-------|
A|---0-----0---------------3-------|
E|-------------------------1-------|
           

(G) (G#) A\   [C] C..  [F] F..  [E][E][E][E]


e|--------------------------------------------------------------|
B|-----------5--------------5--------------5--------------------|
G|-------------7-5-7----------7-5-7-5--------7-5-7-7b9r7--------|
D|---5--77-7----------------------------------------------------|
A|-------------------8------------------------------------------|
E|--------------------------------------------------------------|
    (G) A            F              C              G

e|-------------------------------------------------------------------|
B|-----------5--------------5--------------5-------------------------|
G|---5---------7-5-7----------7-5-7-5--------7-5-7-7b9r7-------------|
D|-----7---7-----------------------------------------------5--6--7---|
A|-------------------8-----------------------------------------------|
E|-------------------------------------------------------------------|
     A               F              C              G      (C)(C)(A)



STROFA 1:

A           C  F                     E
Sopra le città della gloriosa stella rossa dell'oriente 

A             C   F                    E
non risplende più il sole che scaldava la povera gente 

A             C                    F                 E   (E)(G)(A)
sta cambiando l'aria il vento dell'ovest non si fermerà 

A             C                    F  
fino a quando odio guerra e sfruttamento

e|---------------------|
B|---------------------|
G|---------------7b9---|
D|---------------------|
A|---------------------|
E|---------------------|
             E
   si respirerà 



STACCO:

F                      A
Dalle montagne fino al mare

e|--------------------------------------------------|
B|-----5--------------------------------------------|
G|-7b9-----9r7p5h7p5h7p5---5-7b9r7-5-7-5------------|
D|-----------------------7---------------7-7---3----|
A|--------------------------------------------------|
E|--------------------------------------------------|
  (A)

e|-------------------------------------------------------|
B|-----------------------(7)b8r7b8----r7b8---------------|
G|-------------------------------------------------------|
D|-------------------------------------------------------|
A|-------------------------------------------------------|
E|-------------------------------------------------------|
   F                      [C]   C..            [G]   G..
   calpesteranno l'uomo i piedi della proprietà 



RIFF:

e|----------------------------------------------------------|
B|-------5--------------5--------------5--------------------|
G|---------7-5-7----------7-5-7-5--------7-5-7-7b9r7--------|
D|--77-7----------------------------------------------------|
A|---------------8------------------------------------------|
E|----------------------------------------------------------|
    A            F              C              G

e|-------------------------------------------------------------------|
B|-----------5--------------5--------------5-------------------------|
G|---5---------7-5-7----------7-5-7-5--------7-5-7-7b9r7-------------|
D|-----7---7-----------------------------------------------5--6--7---|
A|-------------------8-----------------------------------------------|
E|-------------------------------------------------------------------|
     A               F              C              G      (C)(C)(A)



STROFA 2:

A           C  F                       E
Quando tu vedrai la fame entrare nelle case della gente 

A           C   F                   E                     (E)(G)(A)
e ti accorgerai di te al Freddo non gliene importa niente 

A        C              F                 E   (E)(G)(A)
mafia et CIA polvere di stelle vite prenderà 

A          C                  F
cacheranno soldi sopra la tua pelle

e|---------------------|
B|---------------------|
G|----------------7b9--|
D|---------------------|
A|---------------------|
E|---------------------|
                E
   i cani dello zar 



STACCO:

F                      A
Quale giustizia e libertà 

e|-------12-------12-15p12----12-------12------------------|
B|-15b17----15b17----------15----15b17----17r15-13---------|
G|-------------------------------------------------14~-----|
D|---------------------------------------------------------|
A|---------------------------------------------------------|
E|---------------------------------------------------------|
   (A)

e|----------------------------------------------|
B|-------------------(7)b8r7b8----r7b8----------|
G|----------------------------------------------|
D|----------------------------------------------|
A|----------------------------------------------|
E|----------------------------------------------|
   F                  [C]  C..       [G]  G..
   costruiranno sulla fame e la povertà 



RIFF:
(ripetere più volte ogni nota im p.m.)
e|--------------------------------------------------------------|
B|----------------------------------5---6--5--------------------|
G|---5----4--5------5----4--5------------------7---5----4-------|
D|--------------------------------------------------------------|
A|--------------------------------------------------------------|
E|--------------------------------------------------------------|
     A              F               C          G

                                             <--- no p.m.--->
e|--------------------------------------------------------------|
B|----------------------------------5---6--5--------------------|
G|---5----4--5------5----4--5------------------7----------------|
D|--------------------------------------------------5--6--7-----|
A|--------------------------------------------------------------|
E|--------------------------------------------------------------|
     A              F               C          G   (C)(C)(A)



STROFA 3:

A         C   F                     E
Ottobre vedrà volare bassi gli avvoltoi dell'occidente 

A           C   F                       E
facce di operai al muro insieme all'uguaglianza tra la gente 

A           C                F                E  (E)(G)(A)
tra le cannonate e l'asfalto rosso Ilijc partirà 

A            C                     F
andrà per il mondo cercherà il suo amore

e|---------------------|
B|---------------------|
G|---------------7b9---|
D|---------------------|
A|---------------------|
E|---------------------|
            E
   Solidarietà 



STACCO:

F                     A
Ma sopra il fumo e le macerie 

e|-----------------------------------------------------|
B|-------------8p5-----8p5-----8p5---------------------|
G|--7b9-7b9--------7b9-----7b9-----7b9r7-5-7-5---------|
D|---------------------------------------------7-7--3~-|
A|-----------------------------------------------------|
E|-----------------------------------------------------|
   (A)

e|----------------------------------------------|
B|-----------------------(7)b8r7b8----r7b8------|
G|----------------------------------------------|
D|----------------------------------------------|
A|----------------------------------------------|
E|----------------------------------------------|
   F                     [C]     C..     [G]  G..
   un corvo bianco indosserà una camicia nera 



RITORNELLO:
e|----------------------------------------------------|
B|----------------------------------------------------|
G|------------5--7b9r7-5--------------4---------------|
D|---7--7-7-------------------------------------------|
A|----------------------------------------------------|
E|----------------------------------------------------|
     A        F        C              G
     Mosca '993,       signor padrone mi ricorderò di te... 

e|----------------------------------------------------|
B|----------------------------------------------------|
G|-------------5-7b9r7-5--------------4-----------7---|
D|-5-7--7-7-----------------------------------------5-|
A|----------------------------------------------------|
E|----------------------------------------------------|
     A        F        C              G
     Mosca '993,       signor padrone mi ricorderò di te... 



RIFF:

e|--------------------------------------------|
B|-----5--------------------------------------|
G|----------7-5-7-------5----4h5p4--4---------|
D|--(5)-------------5-------------7-----------|
A|--------------------------------------------|
E|--------------------------------------------|
       C        G       A           E

e|--------------------------------------------|
B|--------------------------------------------|
G|-------------------------5-5--4-5-5/7-------|
D|-----7----5h7p5-----------------------------|
A|---7-----------8-7--------------------------|
E|--------------------------------------------|
       F           C         D        G

e|--------------------------------------------|
B|-----5--------------------------------------|
G|----------7-5-7-------5----4h5p4--4---------|
D|---5--------------5-------------7-----------|
A|--------------------------------------------|
E|--------------------------------------------|
       C        G       A           E

e|--------------------------------------------|
B|--------------------------------------------|
G|-------------------------5-5--4-5-5/7-------|
D|-----7----5h7p5--5--------------------------|
A|---7-----------8----------------------------|
E|--------------------------------------------|
       F           C         D        G


e|----------------------------------------------------------------------|
B|---------------5--------------5--------------5------------------------|
G|-----------------7-5-7----------7-5-7-5--------7-5-7-7b9---7b9-7b9r7--|
D|---5--6---77-7--------------------------------------------------------|
A|-----------------------8----------------------------------------------|
E|----------------------------------------------------------------------|
    (G)(G#) A            F              C              G

e|-------------------------------------------------------------------|
B|-----------5--------------5--------------5-------------------------|
G|---5---------7-5-7----------7-5-7-5--------7-5-7-7b9r7-------------|
D|-----7---7-----------------------------------------------5--6--7---|
A|-------------------8-----------------------------------------------|
E|-------------------------------------------------------------------|
     A               F              C              G      (C)(C)(A)



PONTE:
(a colpi)

A            C     F       E..            (G)
Come un partigiano Tovaric non si arrende 

A               C    F       E..         (G)
col martello in mano Tovaric si difende 



STROFA 4:
(suonare più volte le note segnate con *)
e|----------------------------------------------------------------|
B|----------------------------------------5-----------------------|
G|-2*----------5*------------------5*-------7-5-7-4*--------------|
D|----------------------------------------------------------------|
A|----------------------------------------------------------------|
E|----------------------------------------------------------------|
   A           C                   F              E     (E)(G)(A)
   scenderà la notte con lo sfruttamento sopra le città 

A             C                  F
ma la nostra idea si alzerà ogni giorno 

e|---------------------|
B|---------------------|
G|---------------7b9---|
D|---------------------|
A|---------------------|
E|---------------------|
            E
   e camminerà



STACCO:

F                          A
tra chi mangia polvere e sudore 

e|--------------------------------------------------|
B|-----5--------------------------------------------|
G|-7b9-----9r7p5h7p5h7p5---5-7b9r7-5-7-5------------|
D|-----------------------7---------------7-7---3----|
A|--------------------------------------------------|
E|--------------------------------------------------|
  (A)

e|-------------------------------------------------------|
B|---------------------(7)b8r7b8----r7b8-----------------|
G|-------------------------------------------------------|
D|-------------------------------------------------------|
A|-------------------------------------------------------|
E|-------------------------------------------------------|
   F                       [C]   C..    [G]  G..
   tra chi resiste tra chi non dimenticherà 



RITORNELLO:
e|----------------------------------------------------|
B|----------------------------------------------------|
G|------------5--7b9r7-5--------------4---------------|
D|---7--7-7-------------------------------------------|
A|----------------------------------------------------|
E|----------------------------------------------------|
     A        F        C              G
     Mosca '993,       signor padrone mi ricorderò di te... 

e|----------------------------------------------------|
B|----------------------------------------------------|
G|-------------5-7b9r7-5--------------4-----------7---|
D|-5-7--7-7-----------------------------------------5-|
A|----------------------------------------------------|
E|----------------------------------------------------|
     A        F        C              G
     Mosca '993,       signor padrone mi ricorderò di te... 



RIFF:

e|--------------------------------------------|
B|-----5--------------------------------------|
G|----------7-5-7-------5----4h5p4--4---------|
D|--(5)-------------5-------------7-----------|
A|--------------------------------------------|
E|--------------------------------------------|
       C        G       A           E

e|--------------------------------------------|
B|--------------------------------------------|
G|-------------------------5-5--4-5-5/7-------|
D|-----7----5h7p5--5--------------------------|
A|---7-----------8----------------------------|
E|--------------------------------------------|
       F           C         D        G



CORO:

e|--------------------------------------------|
B|-----5--------------------------------------|
G|----------7-5-7-------5----4h5p4--4---------|
D|---5--------------5-------------7-----------|
A|--------------------------------------------|
E|--------------------------------------------|
       C        G       A           E

e|--------------------------------------------|
B|--------------------------------------------|
G|-------------------------5-5--4-5-5/7-------|
D|-----7----5h7p5--5--------------------------|
A|---7-----------8----------------------------|
E|--------------------------------------------|
       F           C         D        G 


e|--------------------------------------------|
B|-----5--------------------------------------|
G|----------7-5-7-------5----4h5p4--4---------|
D|---5--------------5-------------7-----------|
A|--------------------------------------------|
E|--------------------------------------------|
       C        G       A           E

e|-------------------------------------------------------|
B|-------------------------------------------------------|
G|-------------------------5-5--4-5-5/7------------------|
D|-----7----5h7p5----------------------------5--6---7\---|
A|---7-----------8-7-------------------------------------|
E|-------------------------------------------------------|
       F           C         D        G     (G)(G#)(A)\



OUTRO:

(E) F.. [A] A..
COMMENTA QUESTA TABLATURA
Devi avere JavaScript attivato per poter commentare! (misura antispam)