IndyTab Logo

BETA VERSION - 321 TABS DISPONIBILI

Cerca una tablatura nel nostro archivio:

Gruppo Canzone


Elenco dei gruppi presenti su IndyTab
Lista di tutte le tablature di IndyTab
DISCLAIMER
Questa tablatura rappresenta l'interpretazione della canzone da parte dell'autore. Può essere usata per scopi di studio, insegnamento e ricerca.

La tab è liberamente riproducibile in forum, blog, siti web (ad eccezione degli archivi di tablature online) e stampabile. Non è obbligatorio ma molto gradito citare la fonte (cioè IndyTab), meglio con un link di rimando al nostro sito.
ACCORDATORE
Per accordare la tua chitarra puoi usare il nostro accordatore online
TAB REQUEST
Stai cercando una tablatura? Suggeriscila compilando il modulo sottostante!

Gruppo
Titolo
Tua Mail

(la tua mail verrà usata per ricontattarti quando la tablatura sarà online)
DELLO STESSO GRUPPO

Porno Riviste // Voglio Un Cane

Tablatura tratta dall'album: La Seconda Possibilità

(clicca qui per la legenda)

    E   E(VII)   B    F#    C#    G#
e|--------------------------------------|
B|--------------------------------------|
G|--------9------4----------6-----------|
D|--2-----9------4----4-----6-----6-----|
A|--2-----7------2----4-----4-----6-----|
E|--0-----------------2-----------4-----|


--------------------------------------------------------------------------

INTRO:

(Suonare più volte gli accordi della prima chitarra)

e|----7---------9---------|
B|----7---------7---------|
G|----4---------6---------| X2
D|------------------------|
A|------------------------|
E|------------------------|
      E..  B..  F#..   



STROFA (Dany):
                 E               B              F#  
Voglio un cane peloso un cane di razza un cane dj

           E                  B           F#
Un simbolo forte un cuore che pulsa amici miei

                     E                 B               F#
E voglio un cane a motore un figlio di troia quanto vorrei

              E                 B              F#  
Una storia d’amore al passo coi tempi zero uno sei



STROFA (Tommy):

B          F#           C#      F#
Mi sono svegliato male, Cosa ne sai

B            F#            C#        F#
Abbaio e non sono un cane, Quanto mi dai



CORO:

(Suonare più volte gli accordi della prima chitarra)

e|------7---9-------|
B|------7---7-------|
G|------4---6-------| 
D|------------------|
A|------------------|
E|------------------|
    E   B   F#
    ooOohhhhooooo  un cane dj  


e|------7---9-------|
B|------7---7-------|
G|------4---6-------| 
D|------------------|
A|------------------|
E|------------------|
    E.. B.. F#..
    ooOohhhhooooo  



STROFA (Dany):
(Tutta in p.m.)

                    E         B           F#
Voglio un cane euro 4 e zero gm amici del reich

                   E              B            F#(accordo aperto)
E come un faro nel mare io sono pirata tu cosa sei



STROFA (Tommy):

B          F#           C#      F#
Mi sono svegliato male, Cosa ne sai

B            F#            C#        F#
Abbaio e non sono un cane, Quanto mi dai

C#          F#
    Cosa ne sai

C#          F#
oh, Cosa ne sai


PONTE (Tommy):

(Ripetere più volte ogni nota, suonando in p.m.)
e|--------------------------------------------------------------|
B|--------------------------------------------------------------|
G|--------------------------------------------------------------|
D|---6------------------------------4----------------2----------|
A|--------------------------------------------------------------|
E|--------------------------------------------------------------|
     Io solo io sono io solo io     felicità         cattività


(Ripetere più volte la prima nota, suonando in p.m.)
e|----------------------------------------------|
B|----------------------------------------------|
G|----------------------------------------333-6-|
D|---6-------------------------------4-44-------|
A|----------------------------------------------|
E|----------------------------------------------|
    G#(p.m.)                         F#..        E..
    Noi solo noi siamo noi solo noi, felicità,   cattività


STACCO:

(Suonare più volte gli accordi della prima chitarra)

e|---7---------------9-------|
B|---7---------------7-------|
G|---4---------------6-------|  X2
D|---------------------------|
A|---------------------------|
E|---------------------------|
    E(VII)..   B..    F#..



ULTIMA STROFA:

                 E               B              F#
Voglio un cane peloso un cane di razza un cane dj

           E                  B           F#
Un simbolo forte un cuore che pulsa amici miei


(Suonare più volte gli accordi della prima chitarra)
e|---------------------7-------------------------------9-------|
B|---------------------7-------------------------------7-------|
G|---------------------4-------------------------------6-------|
D|-------------------------------------------------------------|
A|-------------------------------------------------------------|
E|-------------------------------------------------------------|
                       E               B               F#
E voglio un cane a motore un figlio di troia quanto vorrei


e|------------7--------------------------------9-----|
B|------------7--------------------------------7-----|
G|------------4--------------------------------6-----|
D|---------------------------------------------------|
A|---------------------------------------------------|
E|---------------------------------------------------|
              E                 B              F#
Una storia d’amore al passo coi tempi zero uno sei 


OUTRO:

E.. B.. F#..
COMMENTI
8/5/09 19:24, Marco:
Non trovo giusta l'introduzione e il ponte che io faccio

Intro Mi-Si-FA#
Io sono io sono io: sol#-fa#-mi

10/5/09 14:05, Alberto (staff IndyTab):
Ciao Marco,
allora, l'intro è così come suggerisci tu, ovvero
Mi Si e Fa#
che nella tab sono segnati come
E.. B.. F#.. (.. perchè sono pennate lasciate andare).
Però se ascolti si sente anche un'altra chitarra con accordi più acuti, e gli accordi riportati nello spartito dell'intro mi sembrano suonare abbastanza bene.

Per quanto riguarda il ponte, gli accordi che suggerisci tu (sol#-fa#-mi) sono corrispondenti alle note riportate dallo spartito, ovvero 6,4 e 2 del re (D).
A me sembra che all'inizio del ponte suoni solo la singola corda e non tutto l'accordo, gli accordi entrano in palm muted nella seconda parte del ponte. E se ci fai caso la chiarra che suona la nota singola continua a suonare in sottofondo.

In ogni caso questa è una mia interpretazione, altri pareri a riguardo sono benvenuti.
Ciao e grazie per la segnalazione.

18/8/09 00:33, mauro:
La tab è giusta solo che il MI cioè E lo suonerei maggiore introducendo quindi nell'accordo il sol#...


30/8/09 17:41, Alberto (staff IndyTab):
Io lo suonerei in power chord

http://it.wikipedia.org/wiki/Power_chord

ovvero senza il Sol# (tasto 1 del G).
In ogni caso la canzone è in Si maggiore, quindi anche l'accordo di Mi è maggiore. Volendo si può anche suonare il Sol# per rendere più pieno l'accordo.

COMMENTA QUESTA TABLATURA
Devi avere JavaScript attivato per poter commentare! (misura antispam)