IndyTab Logo

BETA VERSION - 321 TABS DISPONIBILI

Cerca una tablatura nel nostro archivio:

Gruppo Canzone


Elenco dei gruppi presenti su IndyTab
Lista di tutte le tablature di IndyTab
DISCLAIMER
Questa tablatura rappresenta l'interpretazione della canzone da parte dell'autore. Può essere usata per scopi di studio, insegnamento e ricerca.

La tab è liberamente riproducibile in forum, blog, siti web (ad eccezione degli archivi di tablature online) e stampabile. Non è obbligatorio ma molto gradito citare la fonte (cioè IndyTab), meglio con un link di rimando al nostro sito.
ACCORDATORE
Per accordare la tua chitarra puoi usare il nostro accordatore online
TAB REQUEST
Stai cercando una tablatura? Suggeriscila compilando il modulo sottostante!

Gruppo
Titolo
Tua Mail

(la tua mail verrà usata per ricontattarti quando la tablatura sarà online)
DELLO STESSO GRUPPO

Porno Riviste // Senza Fiato

Tablatura tratta dall'album: La Seconda Possibilità

(clicca qui per la legenda)

    C#  A  E  G#  B 
e|----------------------|
B|----------------------|
G|--6-------------------|
D|--6---7--2--6---9-----|
A|--4---7--2--6---9-----|
E|------5--0--4---7-----|


--------------------------------------------------------------------------


INTRO:
e|---------------------------------------------------|
B|------7-------7---------------------7--------------|
G|--9-6---8-9-6---8-9-8-6-5-6-----9-6---8-9-8-6-5-6--|
D|---------------------------------------------------|
A|---------------------------------------------------|
E|---------------------------------------------------|


(chitarra ritmica in palm muted)
e|-------------------------------------------------------------|
B|--------7-------7---------------------7-------7--------------|
G|----9-6---8-9-6---8-9-8-6-5-6-----9-6---8-9-6---8-9-8-6-5-6--|
D|-------------------------------------------------------------|
A|-------------------------------------------------------------|
E|-------------------------------------------------------------|
  (E) C#                        (E) C#

e|-------------------------------------------------------------|
B|--------7-------7---------------------7----------------------|
G|----9-6---8-9-6---8-9-8-6-5-6-----9-6---8-9-8-6-5-6----------|
D|-------------------------------------------------------------|
A|-------------------------------------------------------------|
E|-------------------------------------------------------------|
  (E) C#                        (E) C#             [C#]


STROFA:
(palm muted)

C#                               A
Giorni amari, vedo un globo coagulato

                        E
Tutto intorno un mare d'ombre

                      G#               [G#]
E quanta sabbia ho masticato in questi anni

        C#                         A
Volti uguali, facce nuove, volti uguali

                     E
Occhi tristi come un cane da cortile

          G#(distorto normale)                        [G#]
in un guinzaglio troppo stretto troppo stretto per campare



RITORNELLO:
(poweraccordi normali)

        A                       B
Senza fiato, strozzato e senza forze

                      E                     G#(p.m.)
riuscirò lo stesso a odiarti o almeno senza parlare

                A(a colpi)                    [G#]
per poterti vomitare in faccia tutto il mio dolore.



STACCO:
(chitarra ritmica in palm muted)

e|-------------------------------------------------------------|
B|--------7-------7---------------------7-------7--------------|
G|----9-6---8-9-6---8-9-8-6-5-6-----9-6---8-9-6---8-9-8-6-5-6--|
D|-------------------------------------------------------------|
A|-------------------------------------------------------------|
E|-------------------------------------------------------------|
  (E) C#                    [C#]    C#

e|----------------------------------|
B|--------7-------7-----------------|
G|----9-6---8-9-6---8-9-8-6-5-6-----|
D|----------------------------------|
A|----------------------------------|
E|----------------------------------|
  (E) C#                    [C#]



STROFA:
Ripetere la prima strofa, suonando anche il riff


e|------------------------------------------|
B|------7-------7-----------------7---------| 
G|--9-6---8-9-6---8-9-8-6-5-6-8-9-----------|X3
D|------------------------------------------|
A|------------------------------------------|
E|------------------------------------------|



RITORNELLO:
Ripetere il ritornello due volte.
COMMENTI
29/4/09 22:07, zoso:
mi avete salvato con questa tab! grazie mille

30/4/09 10:49, Luca (staff IndyTab):
figurati! se hai bisogno di qualche altra tab chiedi pure! ciao!

COMMENTA QUESTA TABLATURA
Devi avere JavaScript attivato per poter commentare! (misura antispam)