IndyTab Logo

BETA VERSION - 321 TABS DISPONIBILI

Cerca una tablatura nel nostro archivio:

Gruppo Canzone


Elenco dei gruppi presenti su IndyTab
Lista di tutte le tablature di IndyTab
DISCLAIMER
Questa tablatura rappresenta l'interpretazione della canzone da parte dell'autore. Pu essere usata per scopi di studio, insegnamento e ricerca.

La tab liberamente riproducibile in forum, blog, siti web (ad eccezione degli archivi di tablature online) e stampabile. Non obbligatorio ma molto gradito citare la fonte (cio IndyTab), meglio con un link di rimando al nostro sito.
ACCORDATORE
Per accordare la tua chitarra puoi usare il nostro accordatore online
TAB REQUEST
Stai cercando una tablatura? Suggeriscila compilando il modulo sottostante!

Gruppo
Titolo
Tua Mail

(la tua mail verr usata per ricontattarti quando la tablatura sar online)
DELLO STESSO GRUPPO

Moravagine // Vizi

Tablatura tratta dall'album: Per Non Crescere

(clicca qui per la legenda)

(clicca qui per il video)

    D  F# B  G  F#(IX)  E
e|---------------------------|
B|---------------------------|
G|--7-----4------11----------|
D|--7--4--4--5---11-----2----|
A|--5--4--2--5---9------2----|
E|-----2-----3----------0----|


--------------------------------------------------------------------------


STROFA:
(palm muted)

D                  F#
 Ogni volta che ti vedo,

                      B
tu mi parli ed io non sento

            G            D
e mentre mi perdo dentro me,

                        F#
penso al tempo che  passato

                B
e che non  mai morto

                [G]             
ho perso i miei vizi e ho perso...

(ora accordi aperti)

   D                            F#
...te. Oggi si che  il giorno giusto

                  B
per smettere di fumare,

                   G
oggi  un giono perfetto

                D
per smettere di bere.

                        F#
Quattro passi all'aria aperta,

                  B
mezz'ora con gli amici.

                          G
Ho messo via un bel po di vizi, ma chiss com',



RITORNELLO:

  <--- RIFF 1 --->                          <-- RIFF 2 -->
e|---------------------------------------------------------------------|
B|---------------------------------------------------------------------|
G|-7----9----11-11---------------------------14--12--11-11-------------|
D|---------------------------------------------------------------------|
A|-5----7----9--9----------------------------12--10--9--9--------------|
E|---------------------------------------------------------------------|
   D  F#(IX) B    pm(E F#) G                 D F#(IX) B     pm(E F#) G
                                che non ho ancora messo via te

e|---------------------------------------------------------------------|
B|---------------------------------------------------------------------|
G|-7----9----11-11---------------------------14--12--11-11-------------|
D|---------------------------------------------------------------------|
A|-5----7----9--9----------------------------12--10--9--9--------------|
E|---------------------------------------------------------------------|
   D  F#(IX) B    pm(E F#) G                 D F#(IX) B     pm(E F#) G



STROFA:

Oggi si che  il giorno giusto


per rompersi le palle,

                                (pickslide)
oggi  il giorno che ricado fra tutti i miei vizi.

D                        F#
Quattro passi all'aria aperta,

                   B
due palle con gli amici.

                  G
Ho ripreso i miei vizi, ma chiss com',



SOLO FINALE:

(La ritmica  quella del RITORNELLO, eseguendo i riff nell'ordine
RIFF 1, RIFF 1, RIFF 2, RIFF 1, RIFF 2. 
La chitarra ritmica si toppa sul primo e sull'ultimo G)


e|------------------------------------------------------|
B|------------------------------------------------------|
G|--9b11r9p7-9b11..r9---------7---7-7h9p7---7-----------|
D|------------------------9-9---9---------9---9---------|
A|------------------------------------------------------|
E|------------------------------------------------------|

e|-----------------------------------------------------------------------|
B|--10b--b12-b12-b12-b12-b12-b12r10---10p7---7h10p7---7h10p7-10-7-10p7---|
G|-----------------------------------------9--------9------------------9-|
D|-----------------------------------------------------------------------|
A|-----------------------------------------------------------------------|
E|-----------------------------------------------------------------------|

(* suonare pi volte)
e|------------------------------------------------------|
B|------------------7----12-10-12b14r12-10h12-----------|
G|----------7*--9*--------------------------------------|
D|--7*--9*----------------------------------------------|
A|------------------------------------------------------|
E|------------------------------------------------------|

e|------------------------------------------------------|
B|------------------------------------------------------|
G|-----------9\------7--6---------------7b9r7-----------|
D|-------------------------9--7-----(pick harmonic)-----|
A|------------------------------------------------------|
E|------------------------------------------------------|
   che non riesco a prendere te
VIDEO

Se il video non dovesse essere pi disponibile scrivi a indytab@googlemail.com. Grazie!
COMMENTA QUESTA TABLATURA
Devi avere JavaScript attivato per poter commentare! (misura antispam)