IndyTab Logo

BETA VERSION - 321 TABS DISPONIBILI

Cerca una tablatura nel nostro archivio:

Gruppo Canzone


Elenco dei gruppi presenti su IndyTab
Lista di tutte le tablature di IndyTab
DISCLAIMER
Questa tablatura rappresenta l'interpretazione della canzone da parte dell'autore. Può essere usata per scopi di studio, insegnamento e ricerca.

La tab è liberamente riproducibile in forum, blog, siti web (ad eccezione degli archivi di tablature online) e stampabile. Non è obbligatorio ma molto gradito citare la fonte (cioè IndyTab), meglio con un link di rimando al nostro sito.
ACCORDATORE
Per accordare la tua chitarra puoi usare il nostro accordatore online
TAB REQUEST
Stai cercando una tablatura? Suggeriscila compilando il modulo sottostante!

Gruppo
Titolo
Tua Mail

(la tua mail verrà usata per ricontattarti quando la tablatura sarà online)
DELLO STESSO GRUPPO

Los Fastidios // Birra Oi! E Divertimento

Tablatura tratta dall'album: Guardo Avanti

(clicca qui per la legenda)

(clicca qui per il video)

    G  D  E  C  A
e|-------------------|
B|-------------------|
G|-----7--9--5-------|
D|--5--7--9--5--7----|
A|--5--5--7--3--7----|
E|--3-----------5----|


--------------------------------------------------------------------------


INTRO:

G..                  D..
Esagerare, esagerare qualche litro in più OI!

E..                      C..
Birra oi! e divertimento approfittane anche tu

G..                  D..
Esagerare, esagerare qualche litro in più OI!

E..                      C..
Birra oi! e divertimento approfittane anche tu



STACCO:
G D A C (B)(C)   x2



STROFA:

G(p.m.)                  D(p.m.)
E' una notte di baldoria i ragazzi in birreria

A(p.m.)                   C
questa è la nostra storia questa festa è la mia

G(p.m.)                       D(p.m.)
tante gente attorno a noi, si oltrepassa la misura

A(p.m.)                C
bevi pure finchè vuoi, fino all'ora di chiusura



RITORNELLO:

G                    D                 [D] 
Esagerare, esagerare qualche litro in più OI!

E                        C
Birra oi! e divertimento approfittane anche tu

G                    D                [D] 
Esagerare, esagerare qualche litro in più OI!

E                        C
Birra oi! e divertimento approfittane anche tu



STROFA:

G(p.m.)                  D(p.m.)
Si racconta ogni storia: risse, donne e di concerti

A(p.m.)                  C
e' una notte di baldoria come un pazzo ti diverti

G(p.m.)                  D(p.m.)
affanculo tutto il resto grazie a dio è venerdì

A(p.m.)                  C
a timbrare il cartellino ci pensiamo lunedì



RITORNELLO:
Ripetere il ritornello.



SOLO:
e|-------------------------------------------------------------|
B|----8-8-8-8-8----------8-8----------8-8-8-8---8-8-8----------|
G|-/7-7-7-7-7-7----/7-7--7-7----/7-7--7-7-7-7---7-7-7--5b7r5---|
D|-------------------------------------------------------------|
A|-------------------------------------------------------------|
E|-------------------------------------------------------------|
    G               D            A              C

e|-------------------------------------------------------------|
B|---------------8-7--------------------8-7--------------------|
G|--7--7-7--777------9-7----9--9-9--999-----9-7-9--------------|
D|-------------------------------------------------------------|
A|-------------------------------------------------------------|
E|-------------------------------------------------------------|
    G            D          A           C

e|-------------------------------------------------------------|
B|--------------------------------------------8-7--------------|
G|--7---7---7-9-7-7---7---7-9-7-7---7---7-7-7-----9-7-9--------|
D|-------------------------------------------------------------|
A|-------------------------------------------------------------|
E|-------------------------------------------------------------|
    G             D             A             C


e|-------------------------------------------------------------|
B|--------------------------------------------8-7--------------|
G|--7---7---7-9-7-7---7---7-9-7-7---7---7-7-7-----9-7-9-----7--|
D|-------------------------------------------------------------|
A|-------------------------------------------------------------|
E|-------------------------------------------------------------|
    G             D             A             C             G(p.m.)

STROFA:

G(p.m.)                  D(p.m.)
E' una notte di baldoria i ragazzi in birreria

A(p.m.)                   C
questa è la nostra storia questa festa è la mia

G(p.m.)                       D(p.m.)
tante gente attorno a noi, si oltrepassa la misura

A(p.m.)                [C]
bevi pure finchè vuoi, fino all'ora di chiusura



RITORNELLO:
Ripetere il ritornello.



CORO:
G D A C x2



RITORNELLO:
Ripetere il ritornello.



OUTRO:
G D A C x2 
G.. [G]
VIDEO

Se il video non dovesse essere più disponibile scrivi a indytab@googlemail.com. Grazie!
COMMENTA QUESTA TABLATURA
Devi avere JavaScript attivato per poter commentare! (misura antispam)