IndyTab Logo

BETA VERSION - 321 TABS DISPONIBILI

Cerca una tablatura nel nostro archivio:

Gruppo Canzone


Elenco dei gruppi presenti su IndyTab
Lista di tutte le tablature di IndyTab
DISCLAIMER
Questa tablatura rappresenta l'interpretazione della canzone da parte dell'autore. Può essere usata per scopi di studio, insegnamento e ricerca.

La tab è liberamente riproducibile in forum, blog, siti web (ad eccezione degli archivi di tablature online) e stampabile. Non è obbligatorio ma molto gradito citare la fonte (cioè IndyTab), meglio con un link di rimando al nostro sito.
ACCORDATORE
Per accordare la tua chitarra puoi usare il nostro accordatore online
TAB REQUEST
Stai cercando una tablatura? Suggeriscila compilando il modulo sottostante!

Gruppo
Titolo
Tua Mail

(la tua mail verrà usata per ricontattarti quando la tablatura sarà online)
DELLO STESSO GRUPPO

Vallanzaska // Mongolfuori

Tablatura tratta dall'album: Cose Spaventose

(clicca qui per la legenda)

     D    G    A    A#     D     G     A     A#    Bm
e|---------------------|---5-----3-----5-----6-----2-----|
B|---------------------|---7-----3-----5-----6-----3-----|
G|---7-----------------|---7-----4-----6-----7-----4-----|
D|---7----5----7----8--|--(7)---(5)---(7)---(8)---(4)----|
A|---5----5----7----8--|--(5)---(5)---(7)---(8)---(2)----|
E|--------3----5----6--|--------(3)---(5)---(6)----------|
    Power chords             Accordi ska

--------------------------------------------------------------------------


INTRO:

(power chords)

D [G] D [A]  + fare 3 pennate stoppando tutte le corde
D [G] xxx D A.. + picklide



RIFF 1:

e|-----------|
B|---0-2-0---|
G|-----------|
D|-----------|
A|-----------|
E|-----------|



RIFF 2 (x2):
(ritmo ska)

e|--------------------------------------------------------------|
B|---0-2-3--0-2-3-----------------------------------------------|
G|-------------------0-2-4--0-2-4-------------------------------| 
D|-----------------------------------4-5-7--4-5-7--7--5-77------|
A|--------------------------------------------------------------|
E|--------------------------------------------------------------|
     D               G               D             A  

e|--------------------------------------------------------------|
B|---0-2-3--0-2-3-----------------------------------------------|
G|-------------------0-2-4--0-2-4-------------------------------| 
D|-----------------------------------4-5-7--4-5-7--7--5-77------|
A|--------------------------------------------------------------|
E|--------------------------------------------------------------|
     D               G               Bm            A  



STROFA 1:

D + Arpeggio 1 (x5)
Faccio un giro in mongolfiera voglio vedere i dintorni

D
Un po’ per cambiare atmosfera e un po’ per seguire gli stormi


(Accordi normali + power chords stoppati)
D                     A#           A 
Parto quindi stasera, torno tra 80 giorni


Arpeggio 1:

e|-------2-----------2-------------|
B|---------3-----------3-----------|
G|-----2-----------2---------------|
D|---0-----------------------------|
A|---------------2-----------------|
E|---------------------------------|
     (D)



RITORNELLO:
(ritmo ska)

D             G                  D    A
Getto zavorra e come fa Baccelli partirò,

D                G                     D   A
o come Silvestri con i suoi ritornelli salirò



STACCO: RIFF 2, x1



STROFA 2:


D + Arpeggio 1(x5)
L’Italia dall’alto è uno stivale, tacco punta baby one two three

D
Il mondo dall’alto non vale, anche questa ganja non è male


(Accordi normali + power chords stoppati)

D                                   A#+ Arpeggio 2       A  
Che bello stare qui ad alta quota e farsi gran cannoni a ruota


Arpeggio 2:

e|-------6-----------5-------------|
B|---------6-----------5-----------|
G|-----7-----------6---------------|
D|---8-----------7-----------------|
A|---------------------------------|
E|---------------------------------|
     (A#)        (A)     



RITORNELLO: come sopra



ASSOLO:
(Un'altra chitarra fa il RIFF2, x2)


e|--------------------------------------------------------------|
B|---7----7-----7----7-----7----7-----7----7-----7----7---------|
G|---9b11b11----9b11b11----9b11b11----9b11b11----9b11b11--------|
D|--------------------------------------------------------------|
A|--------------------------------------------------------------|
E|--------------------------------------------------------------|
     D                             G

e|--------------------------------------------------------------|
B|---7----7-----7----7------------------------------------------|
G|---9b11b11----9b11b11----9~-----------------------------------|
D|--------------------------------------------------------------|
A|--------------------------------------------------------------|
E|--------------------------------------------------------------|
     D                     A

e|--------------------------------------------------------------|
B|---12----12----12-----12-------14b16--12--14-----7-----7------|
G|---14b16b16----14b16--14---11---------14--14-----9b11--9b11---|
D|--------------------------------------------------------------|
A|--------------------------------------------------------------|
E|--------------------------------------------------------------|
     D           G               Bm                A


STACCO:

D + Arpeggio 1
portaci un ricordo qualche souvenir, 

A# + Arpeggio 2            A 
se passi dalla Gallia non so Amelie



RITORNELLO: come sopra, X1



RITORNELLO: come sopra, X1, mentre una chitarra suona il bending 

e|------------|
B|---7--------|
G|---9b11-----|
D|------------|
A|------------|
E|------------|



OUTRO:

RIFF 2, sempre x2

(power chords)

D [G] xxx D [A] xxx
D [G] xxx [D] [A] [D]  [D]
COMMENTA QUESTA TABLATURA
Devi avere JavaScript attivato per poter commentare! (misura antispam)