IndyTab Logo

BETA VERSION - 321 TABS DISPONIBILI

Cerca una tablatura nel nostro archivio:

Gruppo Canzone


Elenco dei gruppi presenti su IndyTab
Lista di tutte le tablature di IndyTab
DISCLAIMER
Questa tablatura rappresenta l'interpretazione della canzone da parte dell'autore. Pu essere usata per scopi di studio, insegnamento e ricerca.

La tab liberamente riproducibile in forum, blog, siti web (ad eccezione degli archivi di tablature online) e stampabile. Non obbligatorio ma molto gradito citare la fonte (cio IndyTab), meglio con un link di rimando al nostro sito.
ACCORDATORE
Per accordare la tua chitarra puoi usare il nostro accordatore online
TAB REQUEST
Stai cercando una tablatura? Suggeriscila compilando il modulo sottostante!

Gruppo
Titolo
Tua Mail

(la tua mail verr usata per ricontattarti quando la tablatura sar online)
DELLO STESSO GRUPPO

Vallanzaska // Cime

Tablatura tratta dall'album: S S S No No No

(clicca qui per la legenda)

     Bm   Em     A     F#m      D      G
e|---7-----7-----5------2-------5------3-------|
B|---7-----8-----5------2-------7------3-------|
G|---7-----9-----6------2-------7------4-------|
D|--(9)---(9)---(7)----(4)-----(7)----(5)------|
A|--(9)---(7)---(7)----(4)-----(5)----(5)------|
E|--(7)---------(5)----(2)------------(3)------|


--------------------------------------------------------------------------

INTRO:

Bm..      Em..
uuuuuuhhh u-uuuhhhhh

A..       F#m.. F#m..
uuuuuuhhh u-u-u-uuuuhhhh


(con ritmo ska, x2)

Bm Em A F#m 


STROFA 1:

Riff 1 (in p.m.)

e|---------------------------------------------------------------|
B|---------------------------------------------------------------|
G|---------------------------------------------------------------|
D|---------4----4-5---5-7-5-4-----------4---4-5---5-7-5-4--------|
A|---5---5------------------------5---5--------------------------|
E|---------------------------------------------------------------|


e|---------------------------------------------------------------|
B|---------------------------------------------------------------|
G|---------------------------------------------------------------|
D|----------------------5-5---------------------------5-5--------|
A|-------4-4-5-5-4-4---------------------4-4-5-5-4-4-------------|
E|---7-7--------------------2-2-2----7-7------------------2-2-2--|
                                                                

(riff 1)
cime


guardo le montagne e le sue cime


scruto l'orizzonte all'imbrunire


l c' la mia casa e mi sorride

                    D    G  A
tra 2 ore potr riposare



Riff 2 (in p.m.)

e|---------------------------------------------------------------|
B|---------------------------------------------------------------|
G|---------------------------------------------------------------|
D|---------4----4-5---5-7-5-4-----------4---4-5---5-7-5-4--------|
A|---5---5------------------------5---5--------------------------|
E|---------------------------------------------------------------|


e|---------------------------------------------------------------|
B|---------------------------------------------------------------|
G|---------------------------------------------------------------|
D|----------------------5-5-----------------------------5--------|
A|-------4-4-5-5-4-4---------------------4-4-5-5-4-4-------------|
E|---7-7--------------------2-2-2----7-7------------------2-2-2--|


(riff 2)
cime


il tramonto splende sul mio viso


cime sul balcone nel mio vaso


oggi anche il mio cuore mi sorride

                          D 
credo insomma di essere lumato!



RITORNELLO:

Bm
cime tempestose per un cuore che conosco

Em
cime himalayane da scalare ad ogni costo

A
cime di foreste che resistono al disbosco

[F#m]
cime sul balcone a fine marzo trovan posto



STACCO:

Bm Em A F#m



STROFA 2:

(Riff 1)
cime


foglie profumate gi da aprile


fiori che rilassano un badile


l c' una ragazza e mi sorride

                          D    G  A
bionda che mi chiede di salire


(Riff 2)
e sale


guarda l'orizzonte dal balcone


interrotto dalla piantagione


chiede di provare e mi sorride

                          D
ci-mescio il tabacco alle cime


RITORNELLO

Bm
cime tempestose per un cuore che conosco

Em
cime himalayane da scalare ad ogni costo

A
cime di foreste che resistono al disbosco

[F#m]
cime sul balcone che fioriscono ad agosto


STACCO:

Bm Em A F#m


STROFA:

(Riff 2)
sfiga!


ho i riflessi come Paperoga


la ragazza  dell'antidroga


gi c' una gazzella e non sorride

                     D 
tra 2 ore sono a San Vittore


RITORNELLO:

Bm
cime tempestose per un cuore che conosco

Em
cime himalayane da scalare ad ogni costo

A
cime di foreste che resistono al disbosco

F#m
cime sul balcone che fioriscono ad agosto



Bm
cime tempestose per un cuore che conosco

Em
cime himalayane da scalare ad ogni costo

A
cime di foreste che resistono al disbosco

[F#m]
cime sul balcone per quest'anno sono a posto!


STACCO:

Bm Em A F#m


OUTRO:

Bm                   
cime, oh oh oh oh oh 

Em  
cime ohuouououo

A 
cime

         [D][D]
siamo in Cile.


Bm
cime, oh uoh uoh uoh uoh 

Em
cime ohuouououo 

         A
siamo in Cile Gianfrancooo! 

     [D][D]
 la fine! 




e andate a vedere i concerti dei Vallanzaska!


se non ci andate vi faccio la macchina, la moto


e anche 'a fidanzata!



e poi non dite che non vi avevo avvisato!


vaf********* 
COMMENTI
6/11/10 17:40, Lucius in Fabula:
Ol!

COMMENTA QUESTA TABLATURA
Devi avere JavaScript attivato per poter commentare! (misura antispam)