IndyTab Logo

BETA VERSION - 321 TABS DISPONIBILI

Cerca una tablatura nel nostro archivio:

Gruppo Canzone


Elenco dei gruppi presenti su IndyTab
Lista di tutte le tablature di IndyTab
DISCLAIMER
Questa tablatura rappresenta l'interpretazione della canzone da parte dell'autore. Può essere usata per scopi di studio, insegnamento e ricerca.

La tab è liberamente riproducibile in forum, blog, siti web (ad eccezione degli archivi di tablature online) e stampabile. Non è obbligatorio ma molto gradito citare la fonte (cioè IndyTab), meglio con un link di rimando al nostro sito.
ACCORDATORE
Per accordare la tua chitarra puoi usare il nostro accordatore online
TAB REQUEST
Stai cercando una tablatura? Suggeriscila compilando il modulo sottostante!

Gruppo
Titolo
Tua Mail

(la tua mail verrà usata per ricontattarti quando la tablatura sarà online)
DELLO STESSO GRUPPO

Peter Punk // A Letto Con Selen

Tablatura tratta dall'album: XI

(clicca qui per la legenda)

   D  A  G  B        D  A  G
e|--------------|----5--5--3-----|
B|--------------|----7--5--3-----|
G|-7------------|----7--6--4-----|
D|-7--7--5--9---|----7--7--5-----|
A|-5--7--5--9---|----5--7--5-----|
E|----5--3--7---|-------5--3-----|
   accordi punk   accordi puliti

--------------------------------------------------------------------------


INTRO:
e|-----------------------------------------------------------|
B|--77-7---7-----------------77-7----7-7h8-7-----------------|
G|-------9---9-77-77---7----------99---------7-9-------------|
D|-------------------9---9-----------------------------------|
A|-----------------------------------------------------------|
E|-----------------------------------------------------------|
    [D] [A]    G             D    A    B

e|-----------------------------------------------------------|
B|--77-7---7-----------------77-7----7-7h8-7-------7h8-7-----|
G|-------9---9-77-77---7----------99---------7-9---------7-9-|
D|-------------------9---9-----------------------------------|
A|-----------------------------------------------------------|
E|-----------------------------------------------------------|
    D    A     G             D    A    B           A 
 


STROFA:

D..        A..          G..          A..
Genitori a letto quando scocca l'ora x

      D..        A..             G..           A..
tutto quello che volevo adesso è qui davanti a me

        D..          A..          G..            A..
mi si accende il desiderio quando premo il tasto play

      B              A
e poi sogno un altra posizione

G                 [A]
stretto accanto a lei



RITORNELLO:

            D A G A
a letto con selen

            D A G A
a letto con selen

            D A G A
a letto con selen

            D A G
a letto con selen

  A             (D)
a let-to con se-le-n



STROFA:

D..          A..         G..      A..
cerco di far piano e nessuno capirà

     D..          A..         G..       A..
cosa voglio dalla mano che mi da felicità

       D..           A..        G..           A..
quando guardo quella dea la mia testa non c'è più

      B              A         G                 [A]
e poi sogno un'altra posizione stretto accanto a lei



RITORNELLO:
Ripetere il ritornello.



SOLO:
(accordi puliti)
e|--------------------------------------------------|
B|--7---------7------7---------7--7h8p7----7--------|
G|--------7-----9----------7------------9----9-7----|
D|------9---9------------9---9-------------------9--|
A|--------------------------------------------------|
E|--------------------------------------------------|
    D..       A..    G..       A..

e|--------------------------------------------------|
B|--7---------7------7---------7--8--10-8-7---------|
G|--------7-----9----------7----------------9-------|
D|------9---9------------9---9----------------------|
A|--------------------------------------------------|
E|--------------------------------------------------|
    D..       A..    G..       A(distorto, in p.m.)
   <--- + arpeggio  --->

ARPEGGIO:
e|--------------------------------------------------|
B|-----7-----------5-----------3--------------------|
G|---------7-----------6-----------4----------------|
D|-------7-----------7-----------5------------------|
A|--------------------------------------------------|
E|--------------------------------------------------|
    D..         A..         G..
 

(accordi distorti)
e|----------------------------------------------------------|
B|-------7-8-7-----------7-------------7-8-7------8-7-------|
G|---7-9-------9-7---7-9---7-------7-9-------9-7------7-9---|
D|-9---------------9-------------9--------------------------|
A|----------------------------------------------------------|
E|----------------------------------------------------------|
   D       A       G             D       A        B

e|----------------------------------------------------------|
B|-------7-8-7-------7-----------------7-8-7------8-7-------|
G|---7-9-------9-7-9---9-7---------7-9-------9-7------7-9---|
D|-9-----------------------9-----9--------------------------|
A|----------------------------------------------------------|
E|----------------------------------------------------------|
   D       A       G             D       A        B..

e|-------------------------------------------------------------|
B|-8-7-----8-7-----8-7-----8-7-----8-7-----8-7-----8-7---------|
G|-----7-9-----7-9-----7-9-----7-9-----7-9-----7-9-----7-9-7---|
D|-------------------------------------------------------------|
A|-------------------------------------------------------------|
E|-------------------------------------------------------------|
   A..     G..     A..     D..



ULTIMO RITORNELLO:

e se noi volessimo andare a letto con siffredi?

              D A G A
a letto con siffredi

              D A G A
a letto con siffredi

              D A G A
a letto con siffredi

              D A G
a letto con siffredi

  A              D..
a let-to con sif-fre-di!!!
COMMENTA QUESTA TABLATURA
Devi avere JavaScript attivato per poter commentare! (misura antispam)