IndyTab Logo

BETA VERSION - 321 TABS DISPONIBILI

Cerca una tablatura nel nostro archivio:

Gruppo Canzone


Elenco dei gruppi presenti su IndyTab
Lista di tutte le tablature di IndyTab
DISCLAIMER
Questa tablatura rappresenta l'interpretazione della canzone da parte dell'autore. Può essere usata per scopi di studio, insegnamento e ricerca.

La tab è liberamente riproducibile in forum, blog, siti web (ad eccezione degli archivi di tablature online) e stampabile. Non è obbligatorio ma molto gradito citare la fonte (cioè IndyTab), meglio con un link di rimando al nostro sito.
ACCORDATORE
Per accordare la tua chitarra puoi usare il nostro accordatore online
TAB REQUEST
Stai cercando una tablatura? Suggeriscila compilando il modulo sottostante!

Gruppo
Titolo
Tua Mail

(la tua mail verrà usata per ricontattarti quando la tablatura sarà online)
DELLO STESSO GRUPPO

Peter Punk // Il Buffone Di Corte

Tablatura tratta dall'album: XI

(clicca qui per la legenda)

(clicca qui per il video)

   Dm   F   C  F(X)  Gm     D  F  Bb C  F(X)
e|--5---1---3---8----10-|-------------------|
B|--6---1---5---10---11-|-------------------|
G|--7---2---5---10---12-|--7-----3--5---12--|
D|--7---3---5---10---12-|--7--3--3--5---12--|
A|--5---3---3---8----10-|--5--3--1--3---10--|
E|------1---------------|-----1-------------|
      (ska)                   (punk)

--------------------------------------------------------------------------

INTRO:
(poweraccordi)
e|----------------------------------------------------------|
B|------6-8--6---6-------------------6-8--6---6-------------|
G|-7--9--------9---9-7-9--5-----7--9--------9---9-5-7~------|
D|----------------------------------------------------------|
A|----------------------------------------------------------|
E|----------------------------------------------------------|
   D..                          F..           C..

e|----------------------------------------------------------|
B|------6-8--6---6-------------------6-8--6---6-------------|
G|-7--9--------9---9-7-9--5-----7--9--------9---9-5-7~------|x2
D|----------------------------------------------------------|
A|----------------------------------------------------------|
E|----------------------------------------------------------|
   D                            F             C  

e|----------------------------------------------------------|
B|------6-8--6---6-------------------6-8--6---6-------------|
G|-7--9--------9---9-7-9--5-----7--9--------9---9-5-7~------|
D|----------------------------------------------------------|
A|----------------------------------------------------------|
E|----------------------------------------------------------|
   D                            F             C     D..

e|------------|
B|------------|
G|---7/13\7---|
D|------------|
A|------------|
E|------------|



(accordi ska)
e|-----------------------------------------------------------------|
B|------6-8--6---6-------------------6-8--6---6--------------------|
G|-7--9--------9---9-7-9--5-----7--9--------9---9-5-7~-------------|x2
D|-----------------------------------------------------------------|
A|-----------------------------------------------------------------|
E|-----------------------------------------------------------------|
   Dm                           F             C



STROFA:
(accordi ska + accordi punk (D, F(X) e C) lasciati andare)

Dm
Voglio sposare la più bella del reame

F                        C
non la puoi conquistare, sei solo un giullare

Dm
voglio la mano della figlia del sovrano

F                         C
stasera c'è il banchetto, devi essere perfetto

Dm
faccio i bagagli palline e sonagli

F                   C
non ti dimenticare, cappello da giullare

Dm
sul mio cavallo raggiungo il castello

F                   C
lasciatemi passare, vi farò divertire



PONTE:
(poweraccordi)

Bb..                       C..
fino a quando non ti avrò, io non mi fermerò



RITORNELLO:
(poweraccordi)

D                 Bb
salta e diverti i banchetti sono aperti

F                       C
non puoi fermare questa voglia di ballare

D                Bb
fai divertire la folla del sovrano

F                   C
solo cosi le potrai chiedere la mano



STACCO:
(accordi ska)
e|---------------------------------------------------------------10~-|
B|------------------------------------------------------10-11-13-----|
G|--7-5/7-7--5/10-10--5/10-10--5/12-12--5/12-12---12-12--------------|
D|-------------------------------------------------------------------|
A|-------------------------------------------------------------------|
E|-------------------------------------------------------------------|
    Dm         F(X)              Gm                  Bb(punk non distorto)



STROFA:
(accordi ska + accordi punk (D, F(X) e C) lasciati andare)

Dm
la prima prova è un pò pericolosa

F                    C
devi sembrare una persona spiritosa

Dm
attento amico stai rischiando grosso

F                     C
se non fai colpo tu finisci dentro al fosso

Dm
seconda prova quella decisiva

F                  C
o sali sulla nave, o te ne torni a riva

Dm
il re sorride adesso glielo chiedo

F                        C
c'è un piccolo problema, sua figlia è andata a roma



PONTE:
Ripetere il ponte.



RITORNELLO:
Ripetere il ritornello.



CORO:
D Bb F C x2 
D..



SOLO:
(chitarra classica)
e|----------------------------------------------------------|
B|-6--8-10-11--10-8-10-8-6-8-5----6--8-10-11--10-8-10-8-5-6-|
G|-7--9-10-12--10-9-10-9-7-9-5----7--9-10-12--10-9-10-9-5-7-|
D|----------------------------------------------------------|
A|----------------------------------------------------------|
E|----------------------------------------------------------|
 |                                                          |
e|----------------------------------------------------------|
B|----------------------------------------------------------|
G|----------------------------------------------------------|
D|---------5------------------------------5-----------------|
A|-5----------------8-------------5----------------3------5-|
E|----------------------------------------------------------|


e|----------------------------------------------------------|
B|-6--8-10-11--10-8-10-8-6-8-5----6--8-10-11--10-8-10-8-5-6-|
G|-7--9-10-12--10-9-10-9-7-9-5----7--9-10-12--10-9-10-9-5-7-|
D|----------------------------------------------------------|
A|----------------------------------------------------------|
E|----------------------------------------------------------|
 |                                                          |
e|----------------------------------------------------------|
B|----------------------------------------------------------|
G|----------------------------------------------------------|
D|---------5------------------------------5-----------------|
A|-5----------------8-------------5----------------3------5-|
E|----------------------------------------------------------|
                                                         [C][C]

(poweraccordi)
e|----------------------------------------------------------|
B|------6-8--6---6-------------------6-8--6---6-------------|
G|-7--9--------9---9-7-9--5-----7--9--------9---9-5-7~------|x2
D|----------------------------------------------------------|
A|----------------------------------------------------------|
E|----------------------------------------------------------|
   D                            F             C    [C][C]

(due chitarre in armonia)
e|------------------------------------------------------------|
B|------6--8---6---6---------------------6-8--6---6-----------|
G|-7--9----------9---9--7--9--5-----7--9--------9---9--5--7~--|x2
D|------------------------------------------------------------|
A|------------------------------------------------------------|
E|------------------------------------------------------------|
 |                                                            |
e|------------------------------------------------------------|
B|------10-11--10--10-------------------10-11-10--10----------|
G|-10-12---------12--12-10-12-9----10-12--------12--12-9-10~--|x2
D|------------------------------------------------------------|
A|------------------------------------------------------------|
E|------------------------------------------------------------|
   D                               F              C 


OUTRO:
D.. (basso) Bb.. C.. D..
VIDEO

Se il video non dovesse essere più disponibile scrivi a indytab@googlemail.com. Grazie!
COMMENTA QUESTA TABLATURA
Devi avere JavaScript attivato per poter commentare! (misura antispam)