IndyTab Logo

BETA VERSION - 321 TABS DISPONIBILI

Cerca una tablatura nel nostro archivio:

Gruppo Canzone


Elenco dei gruppi presenti su IndyTab
Lista di tutte le tablature di IndyTab
DISCLAIMER
Questa tablatura rappresenta l'interpretazione della canzone da parte dell'autore. Può essere usata per scopi di studio, insegnamento e ricerca.

La tab è liberamente riproducibile in forum, blog, siti web (ad eccezione degli archivi di tablature online) e stampabile. Non è obbligatorio ma molto gradito citare la fonte (cioè IndyTab), meglio con un link di rimando al nostro sito.
ACCORDATORE
Per accordare la tua chitarra puoi usare il nostro accordatore online
TAB REQUEST
Stai cercando una tablatura? Suggeriscila compilando il modulo sottostante!

Gruppo
Titolo
Tua Mail

(la tua mail verrà usata per ricontattarti quando la tablatura sarà online)
DELLO STESSO GRUPPO

Los Fastidios // Un Giorno Capirai

Tablatura tratta dall'album: Radio Boots

(clicca qui per la legenda)

   D  A  B  F#  G  E  G(X) A(XII)  C#
e|------------------------------------|
B|------------------------------------|
G|-7---------------9---12---14-----6--|
D|-7--7--9--4---5--9---12---14-----6--|
A|-5--7--9--4---5--7---10---12-----4--|
E|----5--7--2---3---------------------|


--------------------------------------------------------------------------


INTRO:
D A B F# G D E x2
Alla fine del primo giro pickslide.



STROFA:

D
Ora dimmi

A                B
se mai ti sei fermato

                    D               E
a pensare a ciò che muove intorno a te

D
a te che sempre

A               B                              D          E
senza fare ti lamenti e punti il dito apri gli occhi e vedrai



PONTE:

G(X)        
ogni giorno

D  [D]D
la forza cresce sai

G(X)        
non è certo

D   [D]D
per ciò che tu non fai

G(X)
non ci serve

A(XII) pickslide
la gente come te



RITORNELLO:

D                  G                      B
meno spazio alle parole e più fatti nelle strade

                   A
meno spazio alle parole

D                  G                      B
meno spazio alle parole e più fatti nelle strade

                   D    C#
meno spazio alle parole



SOLO:
e|---------------------------------------------------|
B|---------------------------------------------------|
G|-/7---7-7-7-6---6-7-6-4----2-4-2-4-2-4---2---4-----|
D|---------------------------------------------------|
A|---------------------------------------------------|
E|---------------------------------------------------|
   D          A         B                  G   A

e|------------------------------------------------------------------|
B|------------------------------------------------------------------|
G|-/7---7-7-7-6---6-7-6-4----2-4-2-4-2--4-6-7-7-6-9-6-6-7-6-7~------|
D|------------------------------------------------------------------|
A|------------------------------------------------------------------|
E|------------------------------------------------------------------|
   D          A         B               G         A


STROFA:

D
troppo facile

A              B                       D                E           
restare a giudicare chi si sbatte ogni giorno anche per te

D
è giunta l'ora

A                            B                     D              E
che anche tu muova un pò il culo perchè nulla ti è dovuto e tu lo sai



PONTE:
Ripetere il ponte.



OUTRO:
D                  G                      B
meno spazio alle parole e più fatti nelle strade

                   A
meno spazio alle parole

D                  G                      B
meno spazio alle parole e più fatti nelle strade

                   D    C#
meno spazio alle parole

D                  G                      B
meno spazio alle parole e più fatti nelle strade

                   A
meno spazio alle parole

D                  G                      B
meno spazio alle parole e più fatti nelle strade

                   D    C#            D..
meno spazio alle parole un giorno capirai
COMMENTA QUESTA TABLATURA
Devi avere JavaScript attivato per poter commentare! (misura antispam)