IndyTab Logo

BETA VERSION - 321 TABS DISPONIBILI

Cerca una tablatura nel nostro archivio:

Gruppo Canzone


Elenco dei gruppi presenti su IndyTab
Lista di tutte le tablature di IndyTab
DISCLAIMER
Questa tablatura rappresenta l'interpretazione della canzone da parte dell'autore. Può essere usata per scopi di studio, insegnamento e ricerca.

La tab è liberamente riproducibile in forum, blog, siti web (ad eccezione degli archivi di tablature online) e stampabile. Non è obbligatorio ma molto gradito citare la fonte (cioè IndyTab), meglio con un link di rimando al nostro sito.
ACCORDATORE
Per accordare la tua chitarra puoi usare il nostro accordatore online
TAB REQUEST
Stai cercando una tablatura? Suggeriscila compilando il modulo sottostante!

Gruppo
Titolo
Tua Mail

(la tua mail verrà usata per ricontattarti quando la tablatura sarà online)
DELLO STESSO GRUPPO

FFD // Proletario

Tablatura tratta dall'album: Hasta La Baldoria (split con Los Fastidios)

(clicca qui per la legenda)

(clicca qui per il video)

    D  B  G  A  G#
e|-------------------|
B|-------------------|
G|--7----------------|
D|--7--9--5--7--6----|
A|--5--9--5--7--6----|
E|-----7--3--5--4----|


--------------------------------------------------------------------------


STROFA:

D
Si alza presto ogni mattina

A                     (G#)
Per andare a lavorare

G                     (G#)
Otto ore di officina

A
Puzza polvere e sudore

D
Dire sempre sì al padrone

A                      (G#)
Lavorare a testa bassa

G                    (G#)
Tu ti devi ribellare

A
Non seguire più la massa

D
No non credere al partito

A                       (G#)
Fotti pure il sindacato

G                          (G#)
Se il proletariato è unito

A
Non ti serve più subire

D
Proletari nelle strade

A                          (G#)
Sarà sempre una gran forza

G                          (G#)
Forse un giorno li vedremo

A
Tutti uniti per lottare



PONTE:

D A G A
        Ea ea

D A G A
        Ea ea



RITORNELLO:

D    B
Proletario!

G        A
Otto ore nel cantiere

D    B
Proletario!

G               A
Non lasciarti intrappolare

D    B
Proletario!

G              A
Questa è l'ora di lottare

D    B
Proletario!

G         A
Viva la rivoluzione!

D(a colpi)  [A] [A]
            Oi! oi!

D(a colpi)  [A] [A]
            Oi! oi!

(RIFF sotto al ritornello)
e|--------------------------------------------------|
B|--------------------------------------------------|
G|--7-7-7-6-----------------------------------------|
D|----------9-9-9-9-7-5-5-5-5-5-5-7-7-7-7-----------|
A|--------------------------------------------------|
E|--------------------------------------------------|
    D       B         G           A



RIFF:
e|--------------------------------------------------|
B|--------------------------------------------------|
G|--7-7-7-7-6---------------------------------------|
D|------------7-7-7-7-7-6-5-5-5-5-6-7-7-7-7---------|
A|--------------------------------------------------|
E|--------------------------------------------------|
    D         A           G         A 


STROFA:

D
Quando poi arriva sera

A                       (G#)
Tutti in fila verso casa

G                         (G#)
Per andare in un quartiere

A
Che sarà la tua prigione

D
Non arrenderti stasera

A                    (G#)
Spegni la televisione

G                        (G#)
Questa è l'ora di lottare

A
Viva la rivoluzione



PONTE:
Ripetere il ponte.



RITORNELLO:
Ripetere il ritornello.



OUTRO:

D  B G A 
Proletario oi!

D  B G A
Proletario oi!

D  B G A
Proletario oi!

D  B G A   D..
Proletario oi!
VIDEO

Se il video non dovesse essere più disponibile scrivi a indytab@googlemail.com. Grazie!
COMMENTA QUESTA TABLATURA
Devi avere JavaScript attivato per poter commentare! (misura antispam)