IndyTab Logo

BETA VERSION - 321 TABS DISPONIBILI

Cerca una tablatura nel nostro archivio:

Gruppo Canzone


Elenco dei gruppi presenti su IndyTab
Lista di tutte le tablature di IndyTab
DISCLAIMER
Questa tablatura rappresenta l'interpretazione della canzone da parte dell'autore. Può essere usata per scopi di studio, insegnamento e ricerca.

La tab è liberamente riproducibile in forum, blog, siti web (ad eccezione degli archivi di tablature online) e stampabile. Non è obbligatorio ma molto gradito citare la fonte (cioè IndyTab), meglio con un link di rimando al nostro sito.
ACCORDATORE
Per accordare la tua chitarra puoi usare il nostro accordatore online
TAB REQUEST
Stai cercando una tablatura? Suggeriscila compilando il modulo sottostante!

Gruppo
Titolo
Tua Mail

(la tua mail verrà usata per ricontattarti quando la tablatura sarà online)
DELLO STESSO GRUPPO

Los Fastidios // Fiumi Di Parole

Tablatura tratta dall'album: Siempre Contra

(clicca qui per la legenda)

(clicca qui per il video)

   A  F  C  E  E(VII)
e|----------------------|
B|----------------------|
G|-------5------9-------|
D|-7--3--5--2---9-------|
A|-7--3--3--2---7-------|
E|-5--1-----0-----------|


--------------------------------------------------------------------------


INTRO:
A F C E x4
(pickslide alla fine del secondo giro)



STROFA:

A         F  C     E
Ascolterò, ascolterò

     A      F   C    E
E mi alzerò, mi alzerò

    A         F         C       E
Per gridare a gran voce ciò che penso

    A           F         C      E
Per sputarvi in faccia il mio dissenso

A      F C     E
Lotterò, lotterò

A       F  C   E
Griderò, griderò

A         F         C        E
Contro di voi ed il vostro potere

A         F        C         E
Non riuscirete a tenermi a sedere



RITORNELLO:

A          F
Di Parole, Parole & parole

C            E(VII)+RIFF1
ci avete imbottiti,

              A
flashati, storditi.

           F
Fiumi di parole,

            C
mare di promesse,

              E(VII)
da quelle poltrone

               A       F C E
sono sempre le stesse

                  A       F C [E]
minchiate che vomitate


(RIFF1 sotto al ritornello)
e|--------------------------------------------------------|
B|-12--12--12--12-------13-13-13-12-------13-13-13-12-----|
G|-14b-14b-14b-14b---14-------------14----------------14--|
D|--------------------------------------------------------|
A|--------------------------------------------------------|
E|--------------------------------------------------------|

e|--------------------------------------------------------|
B|---------------------12---------------------------------|
G|-12-12-12----12---14----14~-----------------------------|
D|----------14--------------------------------------------|
A|--------------------------------------------------------|
E|--------------------------------------------------------|



STROFA:

A         F  C     E
Ascolterò, ascolterò

A          F   C     E
Risponderò, risponderò

A        F        C      E
Colpo su colpo ai vostri brogli

   A           F         C        E
Un’altra volta no, non m’imbroglierete



RITORNELLO:

A          F
Di Parole, Parole & parole

C            E(VII)+RIFF1(come sopra)
ci avete imbottiti,

              A
flashati, storditi.

           F
Fiumi di parole,

            C
mare di promesse,

              E(VII)
da quelle poltrone

               A       F C E
sono sempre le stesse

                  A       F C E
minchiate che vomitate



SOLO:
e|--------------------------------------------------|
B|--------------------------------------------------|
G|-5--4-5-7-5--4-5-7--4~-----3-4-5-7-5-4------------|
D|---------------------------------------5~---------|
A|--------------------------------------------------|
E|--------------------------------------------------|
   C                  E(VII)             C

e|--------------------------------------------------|
B|--------------------------------------------------|
G|--------------------------------------------------|
D|--4-4-5-5-5-7-5---2---------0-2--0-2--0-2--4------|
A|--------------------------------------------------|
E|-< palm muted  >----------------------------------|
                    E(VII)

e|--------------------------------------------------|
B|--------------------------------------------------|
G|----5-2---5-5-2-----------------------------------|
D|--3-----3-------3-0-5----4-5-7-5-4-5--------------|
A|--------------------------------------------------|
E|--------------------------------------------------|
    F                 C

e|--------------------------------------------------|
B|--------------------------------------------------|
G|----5-2---5-5-2-----------------4-5-6-7\----------|
D|--3-----3-------3-0-5--4--5--7--------------------|
A|--------------------------------------------------|
E|--------------------------------------------------|
    F                 G                [G]



STACCO:
A F C E x2



STROFA:

A      F C     E(VII)
Lotterò  Lotterò

A      F C     E(VII)
Griderò  griderò

A          F          C           E
Ma con chi credete di avere a che fare

A        F      C    E    [A][A][A][A]
Calci in culo e pedalare



ULTIMO RITORNELLO:
A          F
Di Parole, Parole & parole

C            E(VII)+RIFF2
ci avete imbottiti,

              A
flashati, storditi.

           F
Fiumi di parole,

            C
mare di promesse,

              E(VII)
da quelle poltrone

                 A
sono sempre le stesse

                 F
Fiumi di parole, fiumi di parole

C                E(VII)          A
Fiumi di parole, fiumi di parole

                F
Fiumi di parole,

                 C
mare di promesse,

              E(VII)
da quelle poltrone

               A       F C E
sono sempre le stesse

                  A       F C E
minchiate che vomitate

                  A       F C E
minchiate che vomitate

                  A       F C E(VII)..
minchiate che vomitate


(RIFF2 sotto al ritornello)
e|--------------------------------------------------------|
B|-12--12--12--12------13-13-13-12-------13-13-13-12------|
G|-14b-14b-14b-14b--14-------------14----------------14---|
D|--------------------------------------------------------|
A|--------------------------------------------------------|
E|--------------------------------------------------------|

e|--------------------------------------------------------|
B|---------------------12-------13----------------12-13---|
G|-12-12-12----12---14----14----------12----14-12---------|
D|----------14--------------------------------------------|
A|--------------------------------------------------------|
E|--------------------------------------------------------|

e|--------------------------------------------------------|
B|-------13----------------12-13------12-13p12------------|
G|-14---------12-----14-12-------14~-------------14~------|
D|--------------------------------------------------------|
A|--------------------------------------------------------|
E|--------------------------------------------------------|

e|--------------------------------------------------------|
B|---------12-13p12---------------------------------------|
G|--12-14~-------------14~--------------------------------|
D|--------------------------------------------------------|
A|--------------------------------------------------------|
E|--------------------------------------------------------|
VIDEO

Se il video non dovesse essere più disponibile scrivi a indytab@googlemail.com. Grazie!
COMMENTA QUESTA TABLATURA
Devi avere JavaScript attivato per poter commentare! (misura antispam)