IndyTab Logo

BETA VERSION - 321 TABS DISPONIBILI

Cerca una tablatura nel nostro archivio:

Gruppo Canzone


Elenco dei gruppi presenti su IndyTab
Lista di tutte le tablature di IndyTab
DISCLAIMER
Questa tablatura rappresenta l'interpretazione della canzone da parte dell'autore. Può essere usata per scopi di studio, insegnamento e ricerca.

La tab è liberamente riproducibile in forum, blog, siti web (ad eccezione degli archivi di tablature online) e stampabile. Non è obbligatorio ma molto gradito citare la fonte (cioè IndyTab), meglio con un link di rimando al nostro sito.
ACCORDATORE
Per accordare la tua chitarra puoi usare il nostro accordatore online
TAB REQUEST
Stai cercando una tablatura? Suggeriscila compilando il modulo sottostante!

Gruppo
Titolo
Tua Mail

(la tua mail verrà usata per ricontattarti quando la tablatura sarà online)
DELLO STESSO GRUPPO

Banda Bassotti // Quanta Terra Nelle Mani

Tablatura tratta dall'album: Amore E Odio

(clicca qui per la legenda)

(clicca qui per il video)

       E       A       D               E        A       D 
e|-----7-------5-------5--------|-----------------------------------|
B|-----9-------5-------7--------|-----------------------------------|
G|-----9-------6-------7--------|------9----------------7-----------|
D|----(9)-----(7)-----(7)-------|------9--------7-------7-----------|
A|----(7)-----(7)-----(5)-------|------7--------7-------5-----------|
E|----(7)-----(5)-----(5)-------|---------------5-------------------|
    
     Accordi parte ska                 Accordi distorti    

--------------------------------------------------------------------------

INTRO:
(accordi distorti)

E.. A.. E.. A..
E  D  E  D  A 

  
RIFF:

e|---5-4---------/4-------------5-4---------/4------------------|
B|-------5-3-5----------------------5-3-5--------------------5--|
G|------------------4---------------------------4------4---4----|
D|--------------------6-7-------------------------6-7----7------|
A|--------------------------------------------------------------|
E|--------------------------------------------------------------|
(Ritmo ska)  E          A               E           A 



e|--------------------------------------------------------------|
B|--------5---------5--------5----/8-8-8-7----------------------|
G|---4h6--6----4h6--6---4h6----------------7--------------------|
D|--------------------------------------------------------------|
A|--------------------------------------------------------------|
E|--------------------------------------------------------------|
     E                            D 

e|------------------------------------12------------------------|
B|--------5---------5--------5----/12----10---------------------|
G|---4h6--6----4h6--6---4h6-------------------------------------|
D|--------------------------------------------------------------|
A|--------------------------------------------------------------|
E|--------------------------------------------------------------|
     E                             D     A 


STROFA 1:
(Ritmo ska)

E                        A 
La città è una miniera, pala e picco

E                         A 
Minatori all'aria aperta, monnezzari

E                            D                           E 
Chiedo scusa a chi m'aspetta chi nun sona me sta a rispettà

D        A 
Grazie signori

E                         A  
M'arimbarza er contenuto, butta butta

E                         A 
Io rovescio e me ne vado, tutto er monno

E                          D                           E 
Tanto ar monno j'arimbarzo sai da quando me sta a scarica


D     A    E  D     A     E  D        A     E   D     A    [E]  D  A 
'Na discarica pe l'ipocrisia non l'ho vista mai nella vita mia


ASSOLO:

e|--------------------------------------------------------------|
B|--------5---------5--------5----------------------------------|
G|---4h6--6----4h6--6---4h6------7-7--7-5h6---------------------|
D|------------------------------------------7-------------------|
A|--------------------------------------------------------------|
E|--------------------------------------------------------------|
     E                           D 

e|--------------------------------------------------------------|
B|--------5---------5--------5----------------------------------|
G|---4h6--6----4h6--6---4h6------7-7--7-5h6---------------------|
D|------------------------------------------7-------------------|
A|--------------------------------------------------------------|
E|--------------------------------------------------------------|
     E                           D 

e|-----------2-4-2p0--------9b-9b-9p7---------------------------|
B|--------5----------2----------------9p7-----------------------|
G|---4h6--------------------------------------------------------|
D|--------------------------------------------------------------|
A|--------------------------------------------------------------|
E|--------------------------------------------------------------|
    E                       D 


e|-----------2-4-2p0-----------------9-7------------------------|
B|--------5----------2---------4-5-7----------------------------|
G|---4h6---------------------6----------------------------------|
D|--------------------------------------------------------------|
A|--------------------------------------------------------------|
E|--------------------------------------------------------------|
     E                       D       A 


STROFA 2:
(Ritmo ska)

E                         A   
La monnezza che raccolgo, quanto puzza

E                       A 
Quella vera puzza poco, quasi niente

E                                D                        E     D    A 
Vado a chiede 'n fido in banca e de sicuro me lo stanno a da ce devi crede!

E                          A 
Solo er freddo è amico mio quanno spingo

E                       A 
'Ndo va lui vado pur'io tutto er giorno

E                        D                     E 
Chi l'amici li sa sceje de sicuro nun li perde mai


D    A    E  D     A    E   D      A    E   D     A     [E] D  A 
La discarica della fantasia lo sai dove sta nella testa tua


(accordi distorti)

[E]                       D..
Giornalisti, banche, calendari e auto blu

[E]                    D..     A..
Bancarotta fraudolenta e supereroi

E..                     [D]                    E  D  A 
Io stacco alle 8 nun ce casco la monnezza sete voi


STROFA 3:
(accordi distorti)

E                       A 
La città è una miniera, pala e picco

E                         A 
Minatori all'aria aperta, monnezzari

E                        D                       E   D         A 
Fate finta che er lavoro mio è er peggio che c'è sta senti chi parla!

E                      A 
Portaborse e belatori, commercianti

E                      A    
Maghi e investigatori, bei mestieri

E                      D                       E           
In mezzo a tutti sti signori i più puliti semo noi

D    A    E      D        A    E      D        A    E 
La discarica per voi la discarica per voi la discarica

        D    A    [E]    [D][D][D] [A][A][A] [E]
per voi la discarica 
VIDEO

Se il video non dovesse essere più disponibile scrivi a indytab@googlemail.com. Grazie!
COMMENTA QUESTA TABLATURA
Devi avere JavaScript attivato per poter commentare! (misura antispam)