IndyTab Logo

BETA VERSION - 321 TABS DISPONIBILI

Cerca una tablatura nel nostro archivio:

Gruppo Canzone


Elenco dei gruppi presenti su IndyTab
Lista di tutte le tablature di IndyTab
DISCLAIMER
Questa tablatura rappresenta l'interpretazione della canzone da parte dell'autore. Può essere usata per scopi di studio, insegnamento e ricerca.

La tab è liberamente riproducibile in forum, blog, siti web (ad eccezione degli archivi di tablature online) e stampabile. Non è obbligatorio ma molto gradito citare la fonte (cioè IndyTab), meglio con un link di rimando al nostro sito.
ACCORDATORE
Per accordare la tua chitarra puoi usare il nostro accordatore online
TAB REQUEST
Stai cercando una tablatura? Suggeriscila compilando il modulo sottostante!

Gruppo
Titolo
Tua Mail

(la tua mail verrà usata per ricontattarti quando la tablatura sarà online)
DELLO STESSO GRUPPO

Porno Riviste // Anima

Tablatura tratta dall'album: Cosa Facciamo?

(clicca qui per la legenda)

(clicca qui per il video)

     C   G   A   F   A#  D
e|-----------------------------|
B|-----------------------------|
G|---5-------------------7-----|
D|---5---5---7---3---8---7-----|
A|---3---5---7---3---8---5-----|
E|-------3---5---1---6---------|


--------------------------------------------------------------------------


STROFA 1:

  C..              G..          A..
Vorrei un posto laggiù nell'aldilà 

          G..     
per scrivere canzoni 

F..             G..          C  G
su ogni mondo e su grandi città 

  C            G
vedere i posti più diversi 

A           G
nei pianeti più dispersi 

F          G           A
per capire se soltanto io sto male 

   A#           C     G      F    G       C    G
in questo mondo pieno di follie e avversità. 



RITORNELLO:

   A
Ma tu 

        F
che sei libera e senz'abito 

    C
sei pura verità 

  G
e non ti atteggi mai

   A
Ma tu

         F
che vivi libera e senz'abito 

    C
che non ti scordi mai 

      G
e sai bene come sei. 



STROFA 2:

A             G            F          G
Vorrei vedere se le stelle sono tanti soli 

         F           G            C  G
o se son solo stelle nell'immensità 

   C              G             A
di una galassia immensa e senza tempo 

        G
o senza più rimpianto 

   F              G
in cui c'è chi perdona 

          A
o chi per dono 

          A#
o chi per scrupolo 

  C     G       F     G       C  [C]
nessuno più col tempo vuol pensar 



RITORNELLO:

  A
A te 

            F 
che sfrecci libera oltre ogni atomo 

      C
e che non azzardi mai 

            G
e che di problemi non ne hai 

   A
Ma tu 

          F
che mi trascini e che sei libera 

      C 
e invisibile realtà 

        D           F       G
che non scappa alle difficoltà.



PONTE:

          C
Uoo-oh-oh anima 

          G
Uoo-oh-oh anima 

           A
meglio per te 

                   F
se non sei qui con me 

          C
Uoo-oh-oh anima 

          G
Uoo-oh-oh anima 

        A    F  G
Uoo-oh-oh 



SOLO:
(mettendo l'indice in barré al quinto tasto, lasciando andare
 le note suonate)

e|-----------------------------------------------------|
B|-------5-6-5-------5-6-5------5-6-8-6-5-5h6p5--------|
G|---5------------5----------5-------------------------|
D|-----------------------------------------------------|
A|-----------------------------------------------------|
E|-----------------------------------------------------|
     C                       G

e|-----------------------------------------------------|
B|-------5-6-5-------5-6-5--------6-5----5h6p5---------|
G|---5------------5----------5--7-----7----------------|
D|-----------------------------------------------------|
A|-----------------------------------------------------|
E|-----------------------------------------------------|
     A                       F

e|-----------------------------------------------------|
B|-------5-6-5-------5-6-5------5-6-8-6-5-5h6p5--------|
G|---5------------5----------5-------------------------|
D|-----------------------------------------------------|
A|-----------------------------------------------------|
E|-----------------------------------------------------|
     C                       G

e|-----------------------------------------------------|
B|-------5-6-5-------5-6-5---------6-5-----------------|
G|---5------------5------------5-5---------------------|
D|---------------------------5-------------------------|
A|-----------------------------------------------------|
E|-----------------------------------------------------|
     A                       F       G



STROFA 3:

   A..        G..          F..        G..
Vorrei vedere se le stelle sono tanti soli 

     F..        G..         A..
solo per capire se soltanto io sto male 

   A#..
in questo mondo 

C     G     F       G    C   G [C]
pieno di follie e avversità.
VIDEO

Se il video non dovesse essere più disponibile scrivi a indytab@googlemail.com. Grazie!
COMMENTI
18/12/08 17:59, Rapphyo:
Non è mai A ma A-
All'inizio della seconda strofa , non c'è A ma C

ciao.

19/12/08 19:04, Luca (staff IndyTab):
Ciao, grazie per la segnalazione, abbiamo corretto l'accordo sbagliato. Per quanto riguarda il La minore siccome la canzone è suonata in poweraccordi (accordi di quinta) e in questi accordi manca la terza (che determina la tonalità maggiore o minore dell'accordo) abbiamo scelto di non indicare il tono dell'accordo, anche se giustamente se il giro armonico fosse suonato ad accordi pieni il La sarebbe minore.

25/10/10 11:23, punk rock:
guarda che prende il LA no LA minore...solo dopo prende il la e la minore...

5/11/10 23:22, Alberto (staff IndyTab):
D'accordo con Luca che se i La fossero suonati come accordi pieni sarebbero La minori.
In ogni caso, ogni tab che trovate su IndyTab è la migliore approssimazione che riusciamo a fare della canzone, ogni altra interpretazione è benvenuta.
ciao!

COMMENTA QUESTA TABLATURA
Devi avere JavaScript attivato per poter commentare! (misura antispam)