IndyTab Logo

BETA VERSION - 321 TABS DISPONIBILI

Cerca una tablatura nel nostro archivio:

Gruppo Canzone


Elenco dei gruppi presenti su IndyTab
Lista di tutte le tablature di IndyTab
DISCLAIMER
Questa tablatura rappresenta l'interpretazione della canzone da parte dell'autore. Pu essere usata per scopi di studio, insegnamento e ricerca.

La tab liberamente riproducibile in forum, blog, siti web (ad eccezione degli archivi di tablature online) e stampabile. Non obbligatorio ma molto gradito citare la fonte (cio IndyTab), meglio con un link di rimando al nostro sito.
ACCORDATORE
Per accordare la tua chitarra puoi usare il nostro accordatore online
TAB REQUEST
Stai cercando una tablatura? Suggeriscila compilando il modulo sottostante!

Gruppo
Titolo
Tua Mail

(la tua mail verr usata per ricontattarti quando la tablatura sar online)
DELLO STESSO GRUPPO

Porno Riviste // Qualcuno Mi Ha Venduto

Tablatura tratta dall'album: Cosa Facciamo?

(clicca qui per la legenda)

(clicca qui per il video)

    G  E  C  D  E(VII)  F#   G(X)
e|----------------------------------|
B|----------------------------------|
G|--------5--7----9-----10---12-----|
D|--5--2--5--7----9-----10---12-----|
A|--5--2--3--5----7------9---10-----|
E|--3--0----------------------------|


--------------------------------------------------------------------------


INTRO:

e|-------------------------------------------|
B|--------13-12-10------------13-12-10-------|
G|--11h12----------12---11h12----------12----|
D|-------------------------------------------|
A|-------------------------------------------|
E|-------------------------------------------|
    G                   E   

e|-------------------------------------------|
B|--------13-12-10------10--10-10h12--10-----|
G|--11h12----------12------------------------|
D|-------------------------------------------|
A|-------------------------------------------|
E|-------------------------------------------|
    C                   D           

e|--------------------------------------------------------|
B|--------13-12-10---10h12p10--------13-12-10--10h12p10---|
G|--11h12----------------------11h12----------------------|
D|--------------------------------------------------------|
A|--------------------------------------------------------|
E|--------------------------------------------------------|
    G                          E   

e|-------------------------------------------|
B|--------13-12-10------10--10-10h12--10-----|
G|--11h12----------12------------------------|
D|-------------------------------------------|
A|-------------------------------------------|
E|-------------------------------------------|
    C                   D      

e|---------------------------------------------------------------|
B|-8-7---8-7h8p7--8-7---8-7h8p7--8-7---8-7h8p7--10-8-----8-7h8p7-|
G|-----7--------------7--------------7---------------7-----------|
D|---------------------------------------------------------------|
A|---------------------------------------------------------------|
E|---------------------------------------------------------------|
   G..            E..            C              D  

e|---------------------------------------------------------------|
B|-8-7---8-7h8p7--8-7---8-7h8p7--8-7---8-7h8p7--10-8-10-10/12-10-|
G|-----7--------------7--------------7---------------------------|
D|---------------------------------------------------------------|
A|---------------------------------------------------------------|
E|---------------------------------------------------------------|
   G..            E..            C              D     
   


STROFA:

[G]
Iumbe  un fenomeno


un tipo eccezionale

      [G][G]
se si esalta sai che vola 


con le mani e col pedale 

 XX [G]
di mattina appena sveglio 


la sua vita  una manetta 

   XX [G]
ma di notte quando suona 

   (pickslide)
incomincia la vendetta. 



PRERITORNELLO:

C
L'unica menata 

           D
 tutto il tempo in quella ditta 

       G                           D            
la mia vita non si vende e non si affitta 

        C
lui non sogna un posto al sole 

         D
su una spiaggia comunale 

        G                           D
lui non vuole ne i tuoi soldi ne le cale. 



STACCO:

C E(VII) D  (E(VII)) (D)  C  E(VII) [D]

G(X) F# E(VII) x2



CORO(x4):

G      C      D
Uao-oh-oh ua-oh ua-oh-oh



STROFA:

[G]
Iumbe  un fenomeno 


un tipo eccezionale 

            [G][G]
quando  in casa che si allena 


fa un casino micidiale 

    XX [G]
niente scuola niente impegni 


quanti mesi quasi uguali 

 XX [G]
una scala che ti guida 

      (pickslide)
in un mondo di maiali. 



PRERITORNELLO:

C
L'unica menata 

           D
 tutto il tempo in quella ditta 

       G                           D            
la mia vita non si vende e non si affitta 

        C
lui non sogna un posto al sole 

         D
su una spiaggia comunale 

        G                           D    [D]
lui non vuole ne i tuoi soldi ne le cale. 



RITORNELLO:

C           D     G
Qualcuno mi ha venduto 

C           D     G
Qualcuno mi ha venduto 

C           D     G
Qualcuno mi ha venduto 

C           D  [G]
Qualcuno mi ha..   Qualcuno mi havenduto 



SOLO:

La chitarra solista suona l'INTRO. 
Cambia solo la ritmica dell'accompagnamento

G..  E..  C..  D..    x2

G    E    C    D      x2



PRERITORNELLO:

[C]
L'unica menata 

           D
 tutto il tempo in quella ditta 

       [G]                           D            
la mia vita non si vende e non si affitta 

        C
lui non sogna un posto al sole 

         D
su una spiaggia comunale 

        G                           D    [D]
lui non vuole ne i tuoi soldi ne le cale. 



STACCO: solo basso



RITORNELLO FINALE:

C           D     G
Qualcuno mi ha venduto

C           D     G
Qualcuno mi ha venduto

C           D     G
Qualcuno mi ha venduto

C           D      [G]                     [G]
Qualcuno mi ha (ma va) Qualcuno mi venduto
VIDEO

Se il video non dovesse essere pi disponibile scrivi a indytab@googlemail.com. Grazie!
COMMENTA QUESTA TABLATURA
Devi avere JavaScript attivato per poter commentare! (misura antispam)