IndyTab Logo

BETA VERSION - 321 TABS DISPONIBILI

Cerca una tablatura nel nostro archivio:

Gruppo Canzone


Elenco dei gruppi presenti su IndyTab
Lista di tutte le tablature di IndyTab
DISCLAIMER
Questa tablatura rappresenta l'interpretazione della canzone da parte dell'autore. Può essere usata per scopi di studio, insegnamento e ricerca.

La tab è liberamente riproducibile in forum, blog, siti web (ad eccezione degli archivi di tablature online) e stampabile. Non è obbligatorio ma molto gradito citare la fonte (cioè IndyTab), meglio con un link di rimando al nostro sito.
ACCORDATORE
Per accordare la tua chitarra puoi usare il nostro accordatore online
TAB REQUEST
Stai cercando una tablatura? Suggeriscila compilando il modulo sottostante!

Gruppo
Titolo
Tua Mail

(la tua mail verrà usata per ricontattarti quando la tablatura sarà online)
DELLO STESSO GRUPPO

Piperrak // Mi Primer Amor

Tablatura tratta dall'album: Arde Ribera

(clicca qui per la legenda)

    F#     C#     B          F#     C#     B 
e|--9------9------7-----|-----------------------|
B|--11-----9------7-----|-----------------------|
G|--11-----10-----8-----|----11-----------------|
D|-(11)---(11)---(9)----|----11-----11-----9----|
A|--(9)---(11)---(9)----|----9------11-----9----|
E|--(9)---(9)----(7)----|-----------9------7----|
    Acordes ska             Acordes punk

--------------------------------------------------------------------------


INTRO:

Riff 1:
(repetir más veces cada nota)
e|--------------------------------------------------------------|
B|---------------14---------------------------------------------|
G|--------------------------------------------------------------|
D|---------13---------13----------------------------------------|
A|---14---------------------------------------------------------|
E|--------------------------------------------------------------|
     F#    C#    B    C#  (en p.m.)


Después sigue el Riff1, y se anadie una guitarra que hace otro 
riff, y otra guitara con los acordes ska.

Riff 2 (x2, solo la guitara ska cambia en la segunda vuelta):

e|-----------------------------------------------------------|
B|-----------------------------------------------------------|
G|-----------------------------------------------------------|
D|-------11-9-------11-9-------------------------------------|
A|---9-9--------9-9--------------11-9---------11-9-----------|
E|---------------------------9-9----------9-9----------------|
     F#                      C#    (en p.m.)

e|-----------------------------------------------------------|
B|-----------------------------------------------------------|
G|-----------------------------------------------------------|
D|-----------------------------------------------------------|
A|-------9--7---------9-7--------11-9---------11-9-----------|
E|---7-7----------7-7--------9-9----------9-9----------------|
     B                       C#  (en p.m.)



CORO:
(una guitara con ritmo ska, otra guitara punk)

F# C# B C#  X2



ESTROFA:
(una guitara con ritmo ska, otra guitara punk)

F#          C#(p.m.)                  B                C#(p.m.)  
Hoy, hoy he vuelto, hoy he vuelto a soñar, a soñar con ella

F#              C#(p.m.)                B                C#(p.m.)
Es mi fiel compañera, la que me da y me quita alegrías y penas

F#         C#(p.m.)     B                          
¿Qué culpa tengo yo? de haberme enamorado... 

    C#..         C#..  C#..  C#..  
¡De una botella!


(solo guitara punk)
F# C# B(p.m.) C#(p.m.) C/C#(p.m.)      (x2)

  

ESTROFA:

F#          C#                        B                C#    C/C# C/C#
Hoy, hoy he vuelto, hoy he vuelto a soñar, a soñar con ella

F#              C#                      B                C     C/C# C/C#
Es mi fiel compañera, la que me da y me quita alegrías y penas

F#         C#           B                          
¿Qué culpa tengo yo? de haberme enamorado... 

    C#                           
¡De una botella!



PUNTEO:

[F#]  [F#][F#][F#][C#]
pick-slide
[B]  B(p.m.)  C#(p.m.)   C/C#(p.m.)   C/C#(p.m.)

[F#]  [F#][F#][F#][C#]
pick-slide
[B]  B(p.m.)  C#(p.m.)   



ESTROFA:

F#          C#                        B                C#    C/C#
Hoy, hoy he vuelto, hoy he vuelto a soñar, a soñar con ella

F#              C#                      B                C#    C/C# C/C#
Es mi fiel compañera, la que me da y me quita alegrías y penas

F#         C#           B                          
¿Qué culpa tengo yo? de haberme enamorado... 

    C    
¡De una botella!



OUTRO:
F#..  (F#)C#..   (C#)B..  (B)[C#][C#][C#] F#\
COMMENTA QUESTA TABLATURA
Devi avere JavaScript attivato per poter commentare! (misura antispam)