IndyTab Logo

BETA VERSION - 321 TABS DISPONIBILI

Cerca una tablatura nel nostro archivio:

Gruppo Canzone


Elenco dei gruppi presenti su IndyTab
Lista di tutte le tablature di IndyTab
DISCLAIMER
Questa tablatura rappresenta l'interpretazione della canzone da parte dell'autore. Può essere usata per scopi di studio, insegnamento e ricerca.

La tab è liberamente riproducibile in forum, blog, siti web (ad eccezione degli archivi di tablature online) e stampabile. Non è obbligatorio ma molto gradito citare la fonte (cioè IndyTab), meglio con un link di rimando al nostro sito.
ACCORDATORE
Per accordare la tua chitarra puoi usare il nostro accordatore online
TAB REQUEST
Stai cercando una tablatura? Suggeriscila compilando il modulo sottostante!

Gruppo
Titolo
Tua Mail

(la tua mail verrà usata per ricontattarti quando la tablatura sarà online)
DELLO STESSO GRUPPO

FFD // Brigata Oi!

Tablatura tratta dall'album: Hasta La Baldoria (split con Los Fastidios)

(clicca qui per la legenda)

(clicca qui per il video)

   G  D  A# C  A  B
e|---------------------|
B|---------------------|
G|----7--3--5-----4----|
D|-5--7--3--5--7--4----|
A|-5--5--1--3--7--2----|
E|-3-----------5-------|


--------------------------------------------------------------------------


INTRO:

(pickslide)

G D A# C x2



STROFA:

  G                        D
Giriamo per la strada, ubriachi come bisce

    A#                     C
Non siamo dei drogati siam solo alcoolizzati

    G                   D
Scarponi sull'asfalto e urla per la strada

   A#                 C
Il vino nella testa e l'alcool nel corpo!



RITORNELLO:
(palm muted)

e|-----------------------------|
B|-----------------------------|
G|--9---11--12--7--------------|
D|--7---9---10--5--------------|
A|-----------------------------|
E|-----------------------------|
 |                             |
e|-----------------------------|
B|-----------------------------|
G|-----------------------------|
D|-----------------------------|
A|-----------------3---2---0---|
E|-----------------------------|
    A   B   C   G


e|-----------------------------|
B|-----------------------------|
G|--9------------11------------|
D|--7------------9-------------|
A|-----------------------------|
E|-----------------------------|
    A            B
    Brigata Oi! (da tutt'Italia)


e|-----------------------------|
B|-----------------------------|
G|--12-------------7-----------|
D|--10-------------5-----------|
A|-----------------------------|
E|-----------------------------|
    C              G
    Ragazzi uniti (Skinhead e punk)

e|-----------------------------|
B|-----------------------------|
G|--9------------11------------|
D|--7------------9-------------|
A|-----------------------------|
E|-----------------------------|
    A            B
    Brigata Oi! (da tutt'Italia)

e|-----------------------------|
B|-----------------------------|
G|--12-------------7-----------|
D|--10-------------5-----------|
A|-----------------------------|
E|-----------------------------|
    C             [G]
    Ragazzi uniti (Skinhead e punk)



STACCO:
G D A# C x2



STROFA:

G              D
Questo weekend ce la godiamo

    A#                        C
non ce ne frega un cazzo di andare a lavorare

 G                   D
Ora son tutti contro a noi ragazzi

A#             C
ma poi vedrete chi non morirà



RITORNELLO:
Ripetere il ritornello.



STACCO:

(pickslide)

G D A# C x2



RITORNELLO:
Ripetere il ritornello.
VIDEO

Se il video non dovesse essere più disponibile scrivi a indytab@googlemail.com. Grazie!
COMMENTA QUESTA TABLATURA
Devi avere JavaScript attivato per poter commentare! (misura antispam)